ISO-10303-21;
HEADER;
FILE_DESCRIPTION (( 'STEP AP203' ),
    '1' );
FILE_NAME ('54c4.STEP',
    '2023-02-12T11:39:43',
    ( '' ),
    ( '' ),
    'SwSTEP 2.0',
    'SolidWorks 2019',
    '' );
FILE_SCHEMA (( 'CONFIG_CONTROL_DESIGN' ));
ENDSEC;

DATA;
#1 = EDGE_LOOP ( 'NONE', ( #67, #59, #197, #130 ) ) ;
#2 = LOCAL_TIME ( 12, 39, 43.00000000000000000, #18 ) ;
#3 = CALENDAR_DATE ( 2023, 12, 2 ) ;
#4 = CC_DESIGN_PERSON_AND_ORGANIZATION_ASSIGNMENT ( #126, #252, ( #238 ) ) ;
#5 = VERTEX_POINT ( 'NONE', #202 ) ;
#6 = DIRECTION ( 'NONE',  ( 1.000000000000000000, 0.000000000000000000, 0.000000000000000000 ) ) ;
#7 = DIRECTION ( 'NONE',  ( 0.000000000000000000, 0.000000000000000000, 1.000000000000000000 ) ) ;
#8 = CARTESIAN_POINT ( 'NONE',  ( 0.000000000000000000, 0.000000000000000000, 400.0000000000000000 ) ) ;
#9 =( NAMED_UNIT ( * ) SI_UNIT ( $, .STERADIAN. ) SOLID_ANGLE_UNIT ( ) );
#10 = EDGE_LOOP ( 'NONE', ( #154, #209 ) ) ;
#11 = APPROVAL_PERSON_ORGANIZATION ( #99, #181, #206 ) ;
#12 = ORIENTED_EDGE ( 'NONE', *, *, #222, .F. ) ;
#13 = DIRECTION ( 'NONE',  ( 0.000000000000000000, 0.000000000000000000, 1.000000000000000000 ) ) ;
#14 = CARTESIAN_POINT ( 'NONE',  ( 0.000000000000000000, 0.000000000000000000, 400.0000000000000000 ) ) ;
#15 = ORIENTED_EDGE ( 'NONE', *, *, #102, .T. ) ;
#16 = PERSON_AND_ORGANIZATION ( #240, #184 ) ;
#17 = VECTOR ( 'NONE', #122, 1000.000000000000000 ) ;
#18 = COORDINATED_UNIVERSAL_TIME_OFFSET ( 1, 0, .AHEAD. ) ;
#19 = CARTESIAN_POINT ( 'NONE',  ( -6.000000000000000888, 0.000000000000000000, 5.000000000000000000 ) ) ;
#20 = DIRECTION ( 'NONE',  ( 1.000000000000000000, 0.000000000000000000, 0.000000000000000000 ) ) ;
#21 = VERTEX_POINT ( 'NONE', #248 ) ;
#22 = AXIS2_PLACEMENT_3D ( 'NONE', #82, #219, #117 ) ;
#23 = CARTESIAN_POINT ( 'NONE',  ( 0.000000000000000000, 0.000000000000000000, 5.000000000000000000 ) ) ;
#24 =( NAMED_UNIT ( * ) PLANE_ANGLE_UNIT ( ) SI_UNIT ( $, .RADIAN. ) );
#25 = FACE_BOUND ( 'NONE', #136, .T. ) ;
#26 = ORIENTED_EDGE ( 'NONE', *, *, #166, .T. ) ;
#27 = CARTESIAN_POINT ( 'NONE',  ( 0.000000000000000000, 0.000000000000000000, 400.0000000000000000 ) ) ;
#28 = DIRECTION ( 'NONE',  ( -0.000000000000000000, -0.000000000000000000, -1.000000000000000000 ) ) ;
#29 = APPROVAL ( #37, 'NEURÈENÝ' ) ;
#30 = ADVANCED_BREP_SHAPE_REPRESENTATION ( '54c4', ( #207, #97 ), #73 ) ;
#31 = ADVANCED_FACE ( 'NONE', ( #84 ), #246, .T. ) ;
#32 = ORIENTED_EDGE ( 'NONE', *, *, #180, .F. ) ;
#33 = DIRECTION ( 'NONE',  ( 1.000000000000000000, 0.000000000000000000, 0.000000000000000000 ) ) ;
#34 = VERTEX_POINT ( 'NONE', #168 ) ;
#35 = DIRECTION ( 'NONE',  ( 0.000000000000000000, 0.000000000000000000, 1.000000000000000000 ) ) ;
#36 = AXIS2_PLACEMENT_3D ( 'NONE', #212, #50, #51 ) ;
#37 = APPROVAL_STATUS ( 'not_yet_approved' ) ;
#38 = CALENDAR_DATE ( 2023, 12, 2 ) ;
#39 = ADVANCED_FACE ( 'NONE', ( #149 ), #170, .F. ) ;
#40 = ORIENTED_EDGE ( 'NONE', *, *, #251, .F. ) ;
#41 = VERTEX_POINT ( 'NONE', #19 ) ;
#42 = AXIS2_PLACEMENT_3D ( 'NONE', #234, #138, #157 ) ;
#43 = EDGE_CURVE ( 'NONE', #41, #34, #208, .T. ) ;
#44 = DIRECTION ( 'NONE',  ( -0.000000000000000000, -0.000000000000000000, -1.000000000000000000 ) ) ;
#45 = AXIS2_PLACEMENT_3D ( 'NONE', #123, #100, #113 ) ;
#46 = CC_DESIGN_SECURITY_CLASSIFICATION ( #226, ( #238 ) ) ;
#47 = EDGE_CURVE ( 'NONE', #41, #245, #244, .T. ) ;
#48 = CC_DESIGN_PERSON_AND_ORGANIZATION_ASSIGNMENT ( #165, #85, ( #163 ) ) ;
#49 = LINE ( 'NONE', #121, #210 ) ;
#50 = DIRECTION ( 'NONE',  ( 0.000000000000000000, 0.000000000000000000, 1.000000000000000000 ) ) ;
#51 = DIRECTION ( 'NONE',  ( 1.000000000000000000, 0.000000000000000000, -0.000000000000000000 ) ) ;
#52 = COORDINATED_UNIVERSAL_TIME_OFFSET ( 1, 0, .AHEAD. ) ;
#53 = CIRCLE ( 'NONE', #22, 6.000000000000000888 ) ;
#54 = ORIENTED_EDGE ( 'NONE', *, *, #58, .T. ) ;
#55 = SHAPE_DEFINITION_REPRESENTATION ( #177, #30 ) ;
#56 = ADVANCED_FACE ( 'NONE', ( #25, #74 ), #89, .T. ) ;
#57 = DIRECTION ( 'NONE',  ( -1.000000000000000000, 0.000000000000000000, 0.000000000000000000 ) ) ;
#58 = EDGE_CURVE ( 'NONE', #21, #175, #172, .T. ) ;
#59 = ORIENTED_EDGE ( 'NONE', *, *, #251, .T. ) ;
#60 = ADVANCED_FACE ( 'NONE', ( #118 ), #199, .T. ) ;
#61 = AXIS2_PLACEMENT_3D ( 'NONE', #230, #237, #160 ) ;
#62 = UNCERTAINTY_MEASURE_WITH_UNIT (LENGTH_MEASURE( 1.000000000000000082E-05 ), #213, 'distance_accuracy_value', 'NONE');
#63 = CARTESIAN_POINT ( 'NONE',  ( 6.000000000000000888, 7.347880794884120722E-16, 0.000000000000000000 ) ) ;
#64 = CC_DESIGN_DATE_AND_TIME_ASSIGNMENT ( #70, #107, ( #226 ) ) ;
#65 = CARTESIAN_POINT ( 'NONE',  ( 0.000000000000000000, 0.000000000000000000, 0.000000000000000000 ) ) ;
#66 = DATE_AND_TIME ( #38, #2 ) ;
#67 = ORIENTED_EDGE ( 'NONE', *, *, #102, .F. ) ;
#68 = AXIS2_PLACEMENT_3D ( 'NONE', #72, #71, #93 ) ;
#69 = CARTESIAN_POINT ( 'NONE',  ( 0.000000000000000000, 0.000000000000000000, 5.000000000000000000 ) ) ;
#70 = DATE_AND_TIME ( #3, #148 ) ;
#71 = DIRECTION ( 'NONE',  ( 0.000000000000000000, 0.000000000000000000, 1.000000000000000000 ) ) ;
#72 = CARTESIAN_POINT ( 'NONE',  ( 0.000000000000000000, 0.000000000000000000, 5.000000000000000000 ) ) ;
#73 =( GEOMETRIC_REPRESENTATION_CONTEXT ( 3 ) GLOBAL_UNCERTAINTY_ASSIGNED_CONTEXT ( ( #62 ) ) GLOBAL_UNIT_ASSIGNED_CONTEXT ( ( #213, #24, #9 ) ) REPRESENTATION_CONTEXT ( 'NONE', 'WORKASPACE' ) );
#74 = FACE_OUTER_BOUND ( 'NONE', #183, .T. ) ;
#75 = ORIENTED_EDGE ( 'NONE', *, *, #166, .F. ) ;
#76 = EDGE_LOOP ( 'NONE', ( #40, #176, #92, #132 ) ) ;
#77 = ORIENTED_EDGE ( 'NONE', *, *, #58, .F. ) ;
#78 = LOCAL_TIME ( 12, 39, 43.00000000000000000, #91 ) ;
#79 = APPLICATION_CONTEXT ( 'configuration controlled 3d designs of mechanical parts and assemblies' ) ;
#80 = CARTESIAN_POINT ( 'NONE',  ( 0.000000000000000000, 0.000000000000000000, 400.0000000000000000 ) ) ;
#81 = EDGE_CURVE ( 'NONE', #235, #5, #147, .T. ) ;
#82 = CARTESIAN_POINT ( 'NONE',  ( 0.000000000000000000, 0.000000000000000000, 0.000000000000000000 ) ) ;
#83 = COORDINATED_UNIVERSAL_TIME_OFFSET ( 1, 0, .AHEAD. ) ;
#84 = FACE_OUTER_BOUND ( 'NONE', #76, .T. ) ;
#85 = PERSON_AND_ORGANIZATION_ROLE ( 'creator' ) ;
#86 = CIRCLE ( 'NONE', #173, 3.000000000000000444 ) ;
#87 = EDGE_CURVE ( 'NONE', #125, #34, #195, .T. ) ;
#88 = APPROVAL_DATE_TIME ( #108, #29 ) ;
#89 = PLANE ( 'NONE',  #36 ) ;
#90 = APPROVAL_DATE_TIME ( #225, #181 ) ;
#91 = COORDINATED_UNIVERSAL_TIME_OFFSET ( 1, 0, .AHEAD. ) ;
#92 = ORIENTED_EDGE ( 'NONE', *, *, #43, .T. ) ;
#93 = DIRECTION ( 'NONE',  ( 1.000000000000000000, 0.000000000000000000, 0.000000000000000000 ) ) ;
#94 = AXIS2_PLACEMENT_3D ( 'NONE', #80, #13, #247 ) ;
#95 = EDGE_LOOP ( 'NONE', ( #75, #105, #164, #54 ) ) ;
#96 = ORIENTED_EDGE ( 'NONE', *, *, #47, .T. ) ;
#97 = AXIS2_PLACEMENT_3D ( 'NONE', #65, #35, #20 ) ;
#98 = LOCAL_TIME ( 12, 39, 43.00000000000000000, #52 ) ;
#99 = PERSON_AND_ORGANIZATION ( #240, #184 ) ;
#100 = DIRECTION ( 'NONE',  ( 0.000000000000000000, 0.000000000000000000, 1.000000000000000000 ) ) ;
#101 = CALENDAR_DATE ( 2023, 12, 2 ) ;
#102 = EDGE_CURVE ( 'NONE', #245, #41, #182, .T. ) ;
#103 = VECTOR ( 'NONE', #28, 1000.000000000000000 ) ;
#104 = APPROVAL ( #227, 'NEURÈENÝ' ) ;
#105 = ORIENTED_EDGE ( 'NONE', *, *, #81, .F. ) ;
#106 = PERSON_AND_ORGANIZATION_ROLE ( 'classification_officer' ) ;
#107 = DATE_TIME_ROLE ( 'classification_date' ) ;
#108 = DATE_AND_TIME ( #255, #98 ) ;
#109 = DIRECTION ( 'NONE',  ( 1.000000000000000000, 0.000000000000000000, 0.000000000000000000 ) ) ;
#110 = LINE ( 'NONE', #214, #17 ) ;
#111 = DIRECTION ( 'NONE',  ( 0.000000000000000000, 0.000000000000000000, 1.000000000000000000 ) ) ;
#112 = CARTESIAN_POINT ( 'NONE',  ( 0.000000000000000000, 0.000000000000000000, 5.000000000000000000 ) ) ;
#113 = DIRECTION ( 'NONE',  ( 1.000000000000000000, 0.000000000000000000, 0.000000000000000000 ) ) ;
#114 = PRODUCT ( '54c4', '54c4', '', ( #191 ) ) ;
#115 = LINE ( 'NONE', #242, #156 ) ;
#116 = DIRECTION ( 'NONE',  ( -0.000000000000000000, -0.000000000000000000, -1.000000000000000000 ) ) ;
#117 = DIRECTION ( 'NONE',  ( 1.000000000000000000, 0.000000000000000000, 0.000000000000000000 ) ) ;
#118 = FACE_OUTER_BOUND ( 'NONE', #10, .T. ) ;
#119 = EDGE_CURVE ( 'NONE', #175, #21, #86, .T. ) ;
#120 = APPLICATION_CONTEXT ( 'configuration controlled 3d designs of mechanical parts and assemblies' ) ;
#121 = CARTESIAN_POINT ( 'NONE',  ( 6.000000000000000888, 7.347880794884120722E-16, 5.000000000000000000 ) ) ;
#122 = DIRECTION ( 'NONE',  ( -0.000000000000000000, -0.000000000000000000, -1.000000000000000000 ) ) ;
#123 = CARTESIAN_POINT ( 'NONE',  ( 0.000000000000000000, 0.000000000000000000, 0.000000000000000000 ) ) ;
#124 = APPLICATION_PROTOCOL_DEFINITION ( 'international standard', 'config_control_design', 1994, #79 ) ;
#125 = VERTEX_POINT ( 'NONE', #63 ) ;
#126 = PERSON_AND_ORGANIZATION ( #240, #184 ) ;
#127 = PERSON_AND_ORGANIZATION ( #240, #184 ) ;
#128 = DIRECTION ( 'NONE',  ( -1.000000000000000000, 0.000000000000000000, 0.000000000000000000 ) ) ;
#129 = ADVANCED_FACE ( 'NONE', ( #145 ), #220, .T. ) ;
#130 = ORIENTED_EDGE ( 'NONE', *, *, #43, .F. ) ;
#131 = CALENDAR_DATE ( 2023, 12, 2 ) ;
#132 = ORIENTED_EDGE ( 'NONE', *, *, #222, .T. ) ;
#133 = DIRECTION ( 'NONE',  ( 1.000000000000000000, 0.000000000000000000, -0.000000000000000000 ) ) ;
#134 = FACE_OUTER_BOUND ( 'NONE', #229, .T. ) ;
#135 = CC_DESIGN_PERSON_AND_ORGANIZATION_ASSIGNMENT ( #167, #187, ( #238 ) ) ;
#136 = EDGE_LOOP ( 'NONE', ( #77, #151 ) ) ;
#137 = CC_DESIGN_APPROVAL ( #104, ( #226 ) ) ;
#138 = DIRECTION ( 'NONE',  ( -0.000000000000000000, -0.000000000000000000, -1.000000000000000000 ) ) ;
#139 = CARTESIAN_POINT ( 'NONE',  ( 0.000000000000000000, 0.000000000000000000, 5.000000000000000000 ) ) ;
#140 = DIRECTION ( 'NONE',  ( 1.000000000000000000, 0.000000000000000000, -0.000000000000000000 ) ) ;
#141 = CLOSED_SHELL ( 'NONE', ( #193, #129, #31, #56, #39, #228, #60 ) ) ;
#142 = DIRECTION ( 'NONE',  ( 0.000000000000000000, 0.000000000000000000, 1.000000000000000000 ) ) ;
#143 = DIRECTION ( 'NONE',  ( -1.000000000000000000, 0.000000000000000000, 0.000000000000000000 ) ) ;
#144 = CARTESIAN_POINT ( 'NONE',  ( 6.000000000000000888, 7.347880794884120722E-16, 5.000000000000000000 ) ) ;
#145 = FACE_OUTER_BOUND ( 'NONE', #1, .T. ) ;
#146 = DATE_AND_TIME ( #101, #179 ) ;
#147 = CIRCLE ( 'NONE', #94, 3.000000000000000444 ) ;
#148 = LOCAL_TIME ( 12, 39, 43.00000000000000000, #83 ) ;
#149 = FACE_OUTER_BOUND ( 'NONE', #178, .T. ) ;
#150 = APPROVAL_ROLE ( '' ) ;
#151 = ORIENTED_EDGE ( 'NONE', *, *, #119, .F. ) ;
#152 = AXIS2_PLACEMENT_3D ( 'NONE', #8, #216, #143 ) ;
#153 = DIRECTION ( 'NONE',  ( -0.000000000000000000, -0.000000000000000000, -1.000000000000000000 ) ) ;
#154 = ORIENTED_EDGE ( 'NONE', *, *, #81, .T. ) ;
#155 = AXIS2_PLACEMENT_3D ( 'NONE', #23, #111, #109 ) ;
#156 = VECTOR ( 'NONE', #116, 1000.000000000000000 ) ;
#157 = DIRECTION ( 'NONE',  ( -1.000000000000000000, 0.000000000000000000, 0.000000000000000000 ) ) ;
#158 = PRODUCT_RELATED_PRODUCT_CATEGORY ( 'detail', '', ( #114 ) ) ;
#159 = APPROVAL_PERSON_ORGANIZATION ( #224, #29, #150 ) ;
#160 = DIRECTION ( 'NONE',  ( 1.000000000000000000, 0.000000000000000000, 0.000000000000000000 ) ) ;
#161 = ORIENTED_EDGE ( 'NONE', *, *, #87, .F. ) ;
#162 = SECURITY_CLASSIFICATION_LEVEL ( 'unclassified' ) ;
#163 = PRODUCT_DEFINITION ( 'NEZNÁMÝ', '', #238, #223 ) ;
#164 = ORIENTED_EDGE ( 'NONE', *, *, #215, .T. ) ;
#165 = PERSON_AND_ORGANIZATION ( #240, #184 ) ;
#166 = EDGE_CURVE ( 'NONE', #5, #175, #115, .T. ) ;
#167 = PERSON_AND_ORGANIZATION ( #240, #184 ) ;
#168 = CARTESIAN_POINT ( 'NONE',  ( -6.000000000000000888, 0.000000000000000000, 0.000000000000000000 ) ) ;
#169 = PERSON_AND_ORGANIZATION ( #240, #184 ) ;
#170 = PLANE ( 'NONE',  #236 ) ;
#171 = CC_DESIGN_DATE_AND_TIME_ASSIGNMENT ( #146, #186, ( #163 ) ) ;
#172 = CIRCLE ( 'NONE', #61, 3.000000000000000444 ) ;
#173 = AXIS2_PLACEMENT_3D ( 'NONE', #112, #233, #33 ) ;
#174 = CYLINDRICAL_SURFACE ( 'NONE', #42, 3.000000000000000444 ) ;
#175 = VERTEX_POINT ( 'NONE', #194 ) ;
#176 = ORIENTED_EDGE ( 'NONE', *, *, #47, .F. ) ;
#177 = PRODUCT_DEFINITION_SHAPE ( 'NONE', 'NONE',  #163 ) ;
#178 = EDGE_LOOP ( 'NONE', ( #12, #161 ) ) ;
#179 = LOCAL_TIME ( 12, 39, 43.00000000000000000, #249 ) ;
#180 = EDGE_CURVE ( 'NONE', #5, #235, #198, .T. ) ;
#181 = APPROVAL ( #221, 'NEURÈENÝ' ) ;
#182 = CIRCLE ( 'NONE', #68, 6.000000000000000888 ) ;
#183 = EDGE_LOOP ( 'NONE', ( #96, #15 ) ) ;
#184 = ORGANIZATION ( 'NEURÈENÝ', 'NEURÈENÝ', '' ) ;
#185 = FACE_OUTER_BOUND ( 'NONE', #95, .T. ) ;
#186 = DATE_TIME_ROLE ( 'creation_date' ) ;
#187 = PERSON_AND_ORGANIZATION_ROLE ( 'creator' ) ;
#188 = APPROVAL_ROLE ( '' ) ;
#189 = APPROVAL_DATE_TIME ( #66, #104 ) ;
#190 = DIRECTION ( 'NONE',  ( -0.000000000000000000, -0.000000000000000000, -1.000000000000000000 ) ) ;
#191 = MECHANICAL_CONTEXT ( 'NONE', #79, 'mechanical' ) ;
#192 = CARTESIAN_POINT ( 'NONE',  ( -6.000000000000000888, 0.000000000000000000, 5.000000000000000000 ) ) ;
#193 = ADVANCED_FACE ( 'NONE', ( #134 ), #174, .T. ) ;
#194 = CARTESIAN_POINT ( 'NONE',  ( 3.000000000000000444, 3.673940397442059868E-16, 5.000000000000000000 ) ) ;
#195 = CIRCLE ( 'NONE', #45, 6.000000000000000888 ) ;
#196 = CC_DESIGN_APPROVAL ( #29, ( #163 ) ) ;
#197 = ORIENTED_EDGE ( 'NONE', *, *, #87, .T. ) ;
#198 = CIRCLE ( 'NONE', #218, 3.000000000000000444 ) ;
#199 = PLANE ( 'NONE',  #205 ) ;
#200 = CC_DESIGN_APPROVAL ( #181, ( #238 ) ) ;
#201 = CC_DESIGN_PERSON_AND_ORGANIZATION_ASSIGNMENT ( #169, #106, ( #226 ) ) ;
#202 = CARTESIAN_POINT ( 'NONE',  ( 3.000000000000000444, 3.673940397442059868E-16, 400.0000000000000000 ) ) ;
#203 = PERSON_AND_ORGANIZATION_ROLE ( 'design_owner' ) ;
#204 = ORIENTED_EDGE ( 'NONE', *, *, #119, .T. ) ;
#205 = AXIS2_PLACEMENT_3D ( 'NONE', #14, #142, #140 ) ;
#206 = APPROVAL_ROLE ( '' ) ;
#207 = MANIFOLD_SOLID_BREP ( 'Pøidat vysunutím3', #141 ) ;
#208 = LINE ( 'NONE', #192, #103 ) ;
#209 = ORIENTED_EDGE ( 'NONE', *, *, #180, .T. ) ;
#210 = VECTOR ( 'NONE', #190, 1000.000000000000000 ) ;
#211 = DIRECTION ( 'NONE',  ( 0.000000000000000000, 0.000000000000000000, 1.000000000000000000 ) ) ;
#212 = CARTESIAN_POINT ( 'NONE',  ( 0.000000000000000000, 0.000000000000000000, 5.000000000000000000 ) ) ;
#213 =( LENGTH_UNIT ( ) NAMED_UNIT ( * ) SI_UNIT ( .MILLI., .METRE. ) );
#214 = CARTESIAN_POINT ( 'NONE',  ( -3.000000000000000444, 0.000000000000000000, 400.0000000000000000 ) ) ;
#215 = EDGE_CURVE ( 'NONE', #235, #21, #110, .T. ) ;
#216 = DIRECTION ( 'NONE',  ( -0.000000000000000000, -0.000000000000000000, -1.000000000000000000 ) ) ;
#217 = AXIS2_PLACEMENT_3D ( 'NONE', #69, #44, #128 ) ;
#218 = AXIS2_PLACEMENT_3D ( 'NONE', #27, #211, #6 ) ;
#219 = DIRECTION ( 'NONE',  ( 0.000000000000000000, 0.000000000000000000, 1.000000000000000000 ) ) ;
#220 = CYLINDRICAL_SURFACE ( 'NONE', #232, 6.000000000000000888 ) ;
#221 = APPROVAL_STATUS ( 'not_yet_approved' ) ;
#222 = EDGE_CURVE ( 'NONE', #34, #125, #53, .T. ) ;
#223 = DESIGN_CONTEXT ( 'detailed design', #120, 'design' ) ;
#224 = PERSON_AND_ORGANIZATION ( #240, #184 ) ;
#225 = DATE_AND_TIME ( #131, #78 ) ;
#226 = SECURITY_CLASSIFICATION ( '', '', #162 ) ;
#227 = APPROVAL_STATUS ( 'not_yet_approved' ) ;
#228 = ADVANCED_FACE ( 'NONE', ( #185 ), #239, .T. ) ;
#229 = EDGE_LOOP ( 'NONE', ( #32, #26, #204, #243 ) ) ;
#230 = CARTESIAN_POINT ( 'NONE',  ( 0.000000000000000000, 0.000000000000000000, 5.000000000000000000 ) ) ;
#231 = CARTESIAN_POINT ( 'NONE',  ( 0.000000000000000000, 0.000000000000000000, 0.000000000000000000 ) ) ;
#232 = AXIS2_PLACEMENT_3D ( 'NONE', #139, #153, #57 ) ;
#233 = DIRECTION ( 'NONE',  ( 0.000000000000000000, 0.000000000000000000, 1.000000000000000000 ) ) ;
#234 = CARTESIAN_POINT ( 'NONE',  ( 0.000000000000000000, 0.000000000000000000, 400.0000000000000000 ) ) ;
#235 = VERTEX_POINT ( 'NONE', #241 ) ;
#236 = AXIS2_PLACEMENT_3D ( 'NONE', #231, #7, #133 ) ;
#237 = DIRECTION ( 'NONE',  ( 0.000000000000000000, 0.000000000000000000, 1.000000000000000000 ) ) ;
#238 = PRODUCT_DEFINITION_FORMATION_WITH_SPECIFIED_SOURCE ( 'LIBOVOLNÝ', '', #114, .NOT_KNOWN. ) ;
#239 = CYLINDRICAL_SURFACE ( 'NONE', #152, 3.000000000000000444 ) ;
#240 = PERSON ( 'NEURÈENÝ', 'NEURÈENÝ', 'NEURÈENÝ', ('NEURÈENÝ'), ('NEURÈENÝ'), ('NEURÈENÝ') ) ;
#241 = CARTESIAN_POINT ( 'NONE',  ( -3.000000000000000444, 0.000000000000000000, 400.0000000000000000 ) ) ;
#242 = CARTESIAN_POINT ( 'NONE',  ( 3.000000000000000444, 3.673940397442059868E-16, 400.0000000000000000 ) ) ;
#243 = ORIENTED_EDGE ( 'NONE', *, *, #215, .F. ) ;
#244 = CIRCLE ( 'NONE', #155, 6.000000000000000888 ) ;
#245 = VERTEX_POINT ( 'NONE', #144 ) ;
#246 = CYLINDRICAL_SURFACE ( 'NONE', #217, 6.000000000000000888 ) ;
#247 = DIRECTION ( 'NONE',  ( 1.000000000000000000, 0.000000000000000000, 0.000000000000000000 ) ) ;
#248 = CARTESIAN_POINT ( 'NONE',  ( -3.000000000000000444, 0.000000000000000000, 5.000000000000000000 ) ) ;
#249 = COORDINATED_UNIVERSAL_TIME_OFFSET ( 1, 0, .AHEAD. ) ;
#250 = APPROVAL_PERSON_ORGANIZATION ( #127, #104, #188 ) ;
#251 = EDGE_CURVE ( 'NONE', #245, #125, #49, .T. ) ;
#252 = PERSON_AND_ORGANIZATION_ROLE ( 'design_supplier' ) ;
#253 = CC_DESIGN_PERSON_AND_ORGANIZATION_ASSIGNMENT ( #16, #203, ( #114 ) ) ;
#254 = APPLICATION_PROTOCOL_DEFINITION ( 'international standard', 'config_control_design', 1994, #120 ) ;
#255 = CALENDAR_DATE ( 2023, 12, 2 ) ;
ENDSEC;
END-ISO-10303-21;
