ISO-10303-21;
HEADER;
FILE_DESCRIPTION (( 'STEP AP203' ),
    '1' );
FILE_NAME ('13bd.STEP',
    '2022-07-07T12:58:17',
    ( '' ),
    ( '' ),
    'SwSTEP 2.0',
    'SolidWorks 2019',
    '' );
FILE_SCHEMA (( 'CONFIG_CONTROL_DESIGN' ));
ENDSEC;

DATA;
#1 = COORDINATED_UNIVERSAL_TIME_OFFSET ( 1, 0, .AHEAD. ) ;
#2 = CIRCLE ( 'NONE', #162, 1.000000000000000000 ) ;
#3 = MANIFOLD_SOLID_BREP ( 'Zaoblit1', #75 ) ;
#4 = PERSON_AND_ORGANIZATION ( #266, #85 ) ;
#5 = ADVANCED_FACE ( 'NONE', ( #124 ), #211, .T. ) ;
#6 = AXIS2_PLACEMENT_3D ( 'NONE', #304, #208, #248 ) ;
#7 = EDGE_LOOP ( 'NONE', ( #31, #112 ) ) ;
#8 = AXIS2_PLACEMENT_3D ( 'NONE', #152, #98, #254 ) ;
#9 = VERTEX_POINT ( 'NONE', #95 ) ;
#10 = PERSON_AND_ORGANIZATION ( #266, #85 ) ;
#11 = UNCERTAINTY_MEASURE_WITH_UNIT (LENGTH_MEASURE( 1.000000000000000082E-05 ), #307, 'distance_accuracy_value', 'NONE');
#12 = DATE_AND_TIME ( #79, #14 ) ;
#13 = ORIENTED_EDGE ( 'NONE', *, *, #59, .T. ) ;
#14 = LOCAL_TIME ( 14, 58, 17.00000000000000000, #174 ) ;
#15 = APPROVAL_ROLE ( '' ) ;
#16 = ADVANCED_FACE ( 'NONE', ( #144 ), #172, .F. ) ;
#17 = CALENDAR_DATE ( 2022, 7, 7 ) ;
#18 = CARTESIAN_POINT ( 'NONE',  ( 0.000000000000000000, 0.000000000000000000, 2.000000000000000000 ) ) ;
#19 = DIRECTION ( 'NONE',  ( 1.000000000000000000, 0.000000000000000000, 0.000000000000000000 ) ) ;
#20 = DIRECTION ( 'NONE',  ( -0.000000000000000000, -0.000000000000000000, -1.000000000000000000 ) ) ;
#21 = EDGE_CURVE ( 'NONE', #177, #134, #241, .T. ) ;
#22 = DIRECTION ( 'NONE',  ( 0.000000000000000000, 0.000000000000000000, 1.000000000000000000 ) ) ;
#23 = CARTESIAN_POINT ( 'NONE',  ( -2.000000000000000000, 0.000000000000000000, 2.000000000000000000 ) ) ;
#24 = CIRCLE ( 'NONE', #237, 2.000000000000000000 ) ;
#25 = CC_DESIGN_DATE_AND_TIME_ASSIGNMENT ( #87, #165, ( #239 ) ) ;
#26 = CARTESIAN_POINT ( 'NONE',  ( 0.000000000000000000, 0.000000000000000000, 2.000000000000000000 ) ) ;
#27 = PRODUCT_DEFINITION_SHAPE ( 'NONE', 'NONE',  #239 ) ;
#28 = CARTESIAN_POINT ( 'NONE',  ( 0.000000000000000000, 0.000000000000000000, 0.000000000000000000 ) ) ;
#29 = PERSON_AND_ORGANIZATION_ROLE ( 'design_owner' ) ;
#30 = ADVANCED_FACE ( 'NONE', ( #306 ), #94, .T. ) ;
#31 = ORIENTED_EDGE ( 'NONE', *, *, #150, .T. ) ;
#32 = CIRCLE ( 'NONE', #74, 1.000000000000000000 ) ;
#33 = AXIS2_PLACEMENT_3D ( 'NONE', #50, #116, #205 ) ;
#34 = EDGE_CURVE ( 'NONE', #39, #61, #230, .T. ) ;
#35 =( GEOMETRIC_REPRESENTATION_CONTEXT ( 3 ) GLOBAL_UNCERTAINTY_ASSIGNED_CONTEXT ( ( #11 ) ) GLOBAL_UNIT_ASSIGNED_CONTEXT ( ( #307, #149, #252 ) ) REPRESENTATION_CONTEXT ( 'NONE', 'WORKASPACE' ) );
#36 = EDGE_LOOP ( 'NONE', ( #295, #203, #198, #110 ) ) ;
#37 = ORIENTED_EDGE ( 'NONE', *, *, #169, .T. ) ;
#38 = PERSON_AND_ORGANIZATION ( #266, #85 ) ;
#39 = VERTEX_POINT ( 'NONE', #190 ) ;
#40 = CIRCLE ( 'NONE', #243, 2.000000000000000000 ) ;
#41 = APPROVAL_PERSON_ORGANIZATION ( #117, #195, #15 ) ;
#42 = CARTESIAN_POINT ( 'NONE',  ( 0.000000000000000000, 0.000000000000000000, 252.0000000000000000 ) ) ;
#43 = PERSON_AND_ORGANIZATION_ROLE ( 'classification_officer' ) ;
#44 = PRODUCT_RELATED_PRODUCT_CATEGORY ( 'detail', '', ( #279 ) ) ;
#45 = DIRECTION ( 'NONE',  ( -1.000000000000000000, 0.000000000000000000, 0.000000000000000000 ) ) ;
#46 = CARTESIAN_POINT ( 'NONE',  ( 0.000000000000000000, 0.000000000000000000, 252.0000000000000000 ) ) ;
#47 = EDGE_CURVE ( 'NONE', #71, #277, #69, .T. ) ;
#48 = LOCAL_TIME ( 14, 58, 17.00000000000000000, #90 ) ;
#49 = FACE_OUTER_BOUND ( 'NONE', #81, .T. ) ;
#50 = CARTESIAN_POINT ( 'NONE',  ( 0.000000000000000000, 0.000000000000000000, 2.000000000000000000 ) ) ;
#51 = AXIS2_PLACEMENT_3D ( 'NONE', #188, #121, #96 ) ;
#52 = CARTESIAN_POINT ( 'NONE',  ( 1.200000000000000178, 0.000000000000000000, 2.000000000000003553 ) ) ;
#53 = CIRCLE ( 'NONE', #77, 1.200000000000000178 ) ;
#54 = LINE ( 'NONE', #231, #139 ) ;
#55 = DIRECTION ( 'NONE',  ( 1.000000000000000000, 0.000000000000000000, 0.000000000000000000 ) ) ;
#56 = SECURITY_CLASSIFICATION_LEVEL ( 'unclassified' ) ;
#57 = AXIS2_PLACEMENT_3D ( 'NONE', #196, #125, #286 ) ;
#58 = DIRECTION ( 'NONE',  ( 1.000000000000000000, 0.000000000000000000, 0.000000000000000000 ) ) ;
#59 = EDGE_CURVE ( 'NONE', #277, #224, #2, .T. ) ;
#60 = AXIS2_PLACEMENT_3D ( 'NONE', #18, #244, #118 ) ;
#61 = VERTEX_POINT ( 'NONE', #164 ) ;
#62 = VECTOR ( 'NONE', #126, 1000.000000000000000 ) ;
#63 = ORIENTED_EDGE ( 'NONE', *, *, #47, .T. ) ;
#64 = EDGE_LOOP ( 'NONE', ( #263, #163, #138, #221 ) ) ;
#65 = PERSON_AND_ORGANIZATION ( #266, #85 ) ;
#66 = PLANE ( 'NONE',  #60 ) ;
#67 = DIRECTION ( 'NONE',  ( 1.000000000000000000, 0.000000000000000000, 0.000000000000000000 ) ) ;
#68 = DIRECTION ( 'NONE',  ( 1.000000000000000000, 0.000000000000000000, 0.000000000000000000 ) ) ;
#69 = LINE ( 'NONE', #168, #282 ) ;
#70 = APPROVAL_ROLE ( '' ) ;
#71 = VERTEX_POINT ( 'NONE', #273 ) ;
#72 = EDGE_CURVE ( 'NONE', #71, #158, #32, .T. ) ;
#73 = CARTESIAN_POINT ( 'NONE',  ( -2.000000000000000000, 0.000000000000000000, 2.000000000000000000 ) ) ;
#74 = AXIS2_PLACEMENT_3D ( 'NONE', #183, #167, #67 ) ;
#75 = CLOSED_SHELL ( 'NONE', ( #133, #5, #128, #104, #113, #99, #278, #30, #16 ) ) ;
#76 = DIRECTION ( 'NONE',  ( -0.000000000000000000, -0.000000000000000000, -1.000000000000000000 ) ) ;
#77 = AXIS2_PLACEMENT_3D ( 'NONE', #26, #76, #256 ) ;
#78 = MECHANICAL_CONTEXT ( 'NONE', #123, 'mechanical' ) ;
#79 = CALENDAR_DATE ( 2022, 7, 7 ) ;
#80 = AXIS2_PLACEMENT_3D ( 'NONE', #42, #20, #122 ) ;
#81 = EDGE_LOOP ( 'NONE', ( #292, #83 ) ) ;
#82 = EDGE_LOOP ( 'NONE', ( #291, #200 ) ) ;
#83 = ORIENTED_EDGE ( 'NONE', *, *, #146, .F. ) ;
#84 = DESIGN_CONTEXT ( 'detailed design', #297, 'design' ) ;
#85 = ORGANIZATION ( 'NEURÈENÝ', 'NEURÈENÝ', '' ) ;
#86 = ORIENTED_EDGE ( 'NONE', *, *, #169, .F. ) ;
#87 = DATE_AND_TIME ( #245, #176 ) ;
#88 = DATE_AND_TIME ( #100, #227 ) ;
#89 = CARTESIAN_POINT ( 'NONE',  ( 0.000000000000000000, 0.000000000000000000, 2.000000000000000000 ) ) ;
#90 = COORDINATED_UNIVERSAL_TIME_OFFSET ( 1, 0, .AHEAD. ) ;
#91 = DIRECTION ( 'NONE',  ( 0.000000000000000000, 0.000000000000000000, 1.000000000000000000 ) ) ;
#92 = AXIS2_PLACEMENT_3D ( 'NONE', #253, #105, #130 ) ;
#93 = EDGE_CURVE ( 'NONE', #158, #71, #180, .T. ) ;
#94 = PLANE ( 'NONE',  #51 ) ;
#95 = CARTESIAN_POINT ( 'NONE',  ( -2.000000000000000000, 0.000000000000000000, 0.000000000000000000 ) ) ;
#96 = DIRECTION ( 'NONE',  ( 1.000000000000000000, 0.000000000000000000, -0.000000000000000000 ) ) ;
#97 = CIRCLE ( 'NONE', #262, 0.2000000000000000944 ) ;
#98 = DIRECTION ( 'NONE',  ( 0.000000000000000000, 0.000000000000000000, 1.000000000000000000 ) ) ;
#99 = ADVANCED_FACE ( 'NONE', ( #49 ), #145, .F. ) ;
#100 = CALENDAR_DATE ( 2022, 7, 7 ) ;
#101 = CC_DESIGN_DATE_AND_TIME_ASSIGNMENT ( #159, #204, ( #289 ) ) ;
#102 = CARTESIAN_POINT ( 'NONE',  ( -1.000000000000000000, 0.000000000000000000, 2.200000000000007283 ) ) ;
#103 = DIRECTION ( 'NONE',  ( 0.000000000000000000, 0.000000000000000000, 1.000000000000000000 ) ) ;
#104 = ADVANCED_FACE ( 'NONE', ( #170 ), #251, .T. ) ;
#105 = DIRECTION ( 'NONE',  ( 0.000000000000000000, 0.000000000000000000, 1.000000000000000000 ) ) ;
#106 = APPROVAL_STATUS ( 'not_yet_approved' ) ;
#107 = LINE ( 'NONE', #23, #62 ) ;
#108 = AXIS2_PLACEMENT_3D ( 'NONE', #218, #232, #129 ) ;
#109 = ORIENTED_EDGE ( 'NONE', *, *, #199, .T. ) ;
#110 = ORIENTED_EDGE ( 'NONE', *, *, #21, .F. ) ;
#111 = PERSON_AND_ORGANIZATION_ROLE ( 'creator' ) ;
#112 = ORIENTED_EDGE ( 'NONE', *, *, #21, .T. ) ;
#113 = ADVANCED_FACE ( 'NONE', ( #298, #270 ), #66, .T. ) ;
#114 = EDGE_LOOP ( 'NONE', ( #136, #161, #267, #141 ) ) ;
#115 = APPROVAL_ROLE ( '' ) ;
#116 = DIRECTION ( 'NONE',  ( -0.000000000000000000, -0.000000000000000000, -1.000000000000000000 ) ) ;
#117 = PERSON_AND_ORGANIZATION ( #266, #85 ) ;
#118 = DIRECTION ( 'NONE',  ( 1.000000000000000000, 0.000000000000000000, -0.000000000000000000 ) ) ;
#119 = AXIS2_PLACEMENT_3D ( 'NONE', #46, #228, #19 ) ;
#120 = DIRECTION ( 'NONE',  ( -1.000000000000000000, 1.224646799147351975E-16, 0.000000000000000000 ) ) ;
#121 = DIRECTION ( 'NONE',  ( 0.000000000000000000, 0.000000000000000000, 1.000000000000000000 ) ) ;
#122 = DIRECTION ( 'NONE',  ( -1.000000000000000000, 0.000000000000000000, 0.000000000000000000 ) ) ;
#123 = APPLICATION_CONTEXT ( 'configuration controlled 3d designs of mechanical parts and assemblies' ) ;
#124 = FACE_OUTER_BOUND ( 'NONE', #181, .T. ) ;
#125 = DIRECTION ( 'NONE',  ( 0.000000000000000000, -1.000000000000000000, 0.000000000000000000 ) ) ;
#126 = DIRECTION ( 'NONE',  ( -0.000000000000000000, -0.000000000000000000, -1.000000000000000000 ) ) ;
#127 = DIRECTION ( 'NONE',  ( -0.000000000000000000, -0.000000000000000000, -1.000000000000000000 ) ) ;
#128 = ADVANCED_FACE ( 'NONE', ( #207 ), #301, .T. ) ;
#129 = DIRECTION ( 'NONE',  ( 1.000000000000000000, 0.000000000000000000, 0.000000000000000000 ) ) ;
#130 = DIRECTION ( 'NONE',  ( 1.000000000000000000, 0.000000000000000000, 0.000000000000000000 ) ) ;
#131 = CARTESIAN_POINT ( 'NONE',  ( 1.000000000000000000, 1.224646799147353207E-16, 252.0000000000000000 ) ) ;
#132 = APPROVAL_STATUS ( 'not_yet_approved' ) ;
#133 = ADVANCED_FACE ( 'NONE', ( #142 ), #261, .F. ) ;
#134 = VERTEX_POINT ( 'NONE', #52 ) ;
#135 = APPROVAL_PERSON_ORGANIZATION ( #184, #290, #115 ) ;
#136 = ORIENTED_EDGE ( 'NONE', *, *, #59, .F. ) ;
#137 = EDGE_LOOP ( 'NONE', ( #156, #209, #63, #13 ) ) ;
#138 = ORIENTED_EDGE ( 'NONE', *, *, #146, .T. ) ;
#139 = VECTOR ( 'NONE', #127, 1000.000000000000000 ) ;
#140 = ORIENTED_EDGE ( 'NONE', *, *, #294, .T. ) ;
#141 = ORIENTED_EDGE ( 'NONE', *, *, #189, .F. ) ;
#142 = FACE_OUTER_BOUND ( 'NONE', #114, .T. ) ;
#143 = VECTOR ( 'NONE', #147, 1000.000000000000000 ) ;
#144 = FACE_OUTER_BOUND ( 'NONE', #36, .T. ) ;
#145 = PLANE ( 'NONE',  #157 ) ;
#146 = EDGE_CURVE ( 'NONE', #61, #9, #40, .T. ) ;
#147 = DIRECTION ( 'NONE',  ( -0.000000000000000000, -0.000000000000000000, -1.000000000000000000 ) ) ;
#148 = PRODUCT_DEFINITION_FORMATION_WITH_SPECIFIED_SOURCE ( 'LIBOVOLNÝ', '', #279, .NOT_KNOWN. ) ;
#149 =( NAMED_UNIT ( * ) PLANE_ANGLE_UNIT ( ) SI_UNIT ( $, .RADIAN. ) );
#150 = EDGE_CURVE ( 'NONE', #134, #177, #53, .T. ) ;
#151 = DIRECTION ( 'NONE',  ( -0.000000000000000000, -0.000000000000000000, -1.000000000000000000 ) ) ;
#152 = CARTESIAN_POINT ( 'NONE',  ( 0.000000000000000000, 0.000000000000000000, 2.000000000000000000 ) ) ;
#153 = APPROVAL_PERSON_ORGANIZATION ( #4, #299, #70 ) ;
#154 = APPROVAL_STATUS ( 'not_yet_approved' ) ;
#155 = EDGE_CURVE ( 'NONE', #223, #9, #107, .T. ) ;
#156 = ORIENTED_EDGE ( 'NONE', *, *, #294, .F. ) ;
#157 = AXIS2_PLACEMENT_3D ( 'NONE', #229, #22, #191 ) ;
#158 = VERTEX_POINT ( 'NONE', #131 ) ;
#159 = DATE_AND_TIME ( #222, #48 ) ;
#160 = ADVANCED_BREP_SHAPE_REPRESENTATION ( '13bd', ( #3, #92 ), #35 ) ;
#161 = ORIENTED_EDGE ( 'NONE', *, *, #246, .T. ) ;
#162 = AXIS2_PLACEMENT_3D ( 'NONE', #274, #91, #68 ) ;
#163 = ORIENTED_EDGE ( 'NONE', *, *, #34, .T. ) ;
#164 = CARTESIAN_POINT ( 'NONE',  ( 2.000000000000000000, 2.449293598294706414E-16, 0.000000000000000000 ) ) ;
#165 = DATE_TIME_ROLE ( 'creation_date' ) ;
#166 = CARTESIAN_POINT ( 'NONE',  ( 0.000000000000000000, 0.000000000000000000, 2.000000000000000000 ) ) ;
#167 = DIRECTION ( 'NONE',  ( 0.000000000000000000, 0.000000000000000000, 1.000000000000000000 ) ) ;
#168 = CARTESIAN_POINT ( 'NONE',  ( -1.000000000000000000, 0.000000000000000000, 252.0000000000000000 ) ) ;
#169 = EDGE_CURVE ( 'NONE', #223, #39, #220, .T. ) ;
#170 = FACE_OUTER_BOUND ( 'NONE', #264, .T. ) ;
#171 = CARTESIAN_POINT ( 'NONE',  ( 0.000000000000000000, 0.000000000000000000, 252.0000000000000000 ) ) ;
#172 = TOROIDAL_SURFACE ( 'NONE', #6, 1.200000000000000178, 0.2000000000000000111 ) ;
#173 = AXIS2_PLACEMENT_3D ( 'NONE', #171, #151, #283 ) ;
#174 = COORDINATED_UNIVERSAL_TIME_OFFSET ( 1, 0, .AHEAD. ) ;
#175 = CARTESIAN_POINT ( 'NONE',  ( 0.000000000000000000, 0.000000000000000000, 2.000000000000000000 ) ) ;
#176 = LOCAL_TIME ( 14, 58, 17.00000000000000000, #206 ) ;
#177 = VERTEX_POINT ( 'NONE', #215 ) ;
#178 = ORIENTED_EDGE ( 'NONE', *, *, #47, .F. ) ;
#179 = EDGE_CURVE ( 'NONE', #224, #277, #186, .T. ) ;
#180 = CIRCLE ( 'NONE', #119, 1.000000000000000000 ) ;
#181 = EDGE_LOOP ( 'NONE', ( #242, #140, #238, #178 ) ) ;
#182 = AXIS2_PLACEMENT_3D ( 'NONE', #89, #303, #187 ) ;
#183 = CARTESIAN_POINT ( 'NONE',  ( 0.000000000000000000, 0.000000000000000000, 252.0000000000000000 ) ) ;
#184 = PERSON_AND_ORGANIZATION ( #266, #85 ) ;
#185 = AXIS2_PLACEMENT_3D ( 'NONE', #194, #103, #55 ) ;
#186 = CIRCLE ( 'NONE', #108, 1.000000000000000000 ) ;
#187 = DIRECTION ( 'NONE',  ( 1.000000000000000000, 0.000000000000000000, 0.000000000000000000 ) ) ;
#188 = CARTESIAN_POINT ( 'NONE',  ( 0.000000000000000000, 0.000000000000000000, 252.0000000000000000 ) ) ;
#189 = EDGE_CURVE ( 'NONE', #224, #134, #226, .T. ) ;
#190 = CARTESIAN_POINT ( 'NONE',  ( 2.000000000000000000, 2.449293598294706414E-16, 2.000000000000000000 ) ) ;
#191 = DIRECTION ( 'NONE',  ( 1.000000000000000000, 0.000000000000000000, -0.000000000000000000 ) ) ;
#192 = DIRECTION ( 'NONE',  ( 0.000000000000000000, 0.000000000000000000, 1.000000000000000000 ) ) ;
#193 = CC_DESIGN_PERSON_AND_ORGANIZATION_ASSIGNMENT ( #10, #111, ( #239 ) ) ;
#194 = CARTESIAN_POINT ( 'NONE',  ( 0.000000000000000000, 0.000000000000000000, 2.200000000000007283 ) ) ;
#195 = APPROVAL ( #132, 'NEURÈENÝ' ) ;
#196 = CARTESIAN_POINT ( 'NONE',  ( 1.200000000000000178, 0.000000000000000000, 2.200000000000007283 ) ) ;
#197 = CARTESIAN_POINT ( 'NONE',  ( 1.000000000000000000, 1.224646799147353207E-16, 2.200000000000007283 ) ) ;
#198 = ORIENTED_EDGE ( 'NONE', *, *, #189, .T. ) ;
#199 = EDGE_CURVE ( 'NONE', #39, #223, #202, .T. ) ;
#200 = ORIENTED_EDGE ( 'NONE', *, *, #93, .T. ) ;
#201 = COORDINATED_UNIVERSAL_TIME_OFFSET ( 1, 0, .AHEAD. ) ;
#202 = CIRCLE ( 'NONE', #276, 2.000000000000000000 ) ;
#203 = ORIENTED_EDGE ( 'NONE', *, *, #179, .F. ) ;
#204 = DATE_TIME_ROLE ( 'classification_date' ) ;
#205 = DIRECTION ( 'NONE',  ( -1.000000000000000000, 0.000000000000000000, 0.000000000000000000 ) ) ;
#206 = COORDINATED_UNIVERSAL_TIME_OFFSET ( 1, 0, .AHEAD. ) ;
#207 = FACE_OUTER_BOUND ( 'NONE', #64, .T. ) ;
#208 = DIRECTION ( 'NONE',  ( 0.000000000000000000, 0.000000000000000000, 1.000000000000000000 ) ) ;
#209 = ORIENTED_EDGE ( 'NONE', *, *, #72, .F. ) ;
#210 = CC_DESIGN_PERSON_AND_ORGANIZATION_ASSIGNMENT ( #38, #43, ( #289 ) ) ;
#211 = CYLINDRICAL_SURFACE ( 'NONE', #80, 1.000000000000000000 ) ;
#212 = AXIS2_PLACEMENT_3D ( 'NONE', #166, #247, #45 ) ;
#213 = CARTESIAN_POINT ( 'NONE',  ( 0.000000000000000000, 0.000000000000000000, 0.000000000000000000 ) ) ;
#214 = CC_DESIGN_SECURITY_CLASSIFICATION ( #289, ( #148 ) ) ;
#215 = CARTESIAN_POINT ( 'NONE',  ( -1.200000000000000178, 1.469576158976823799E-16, 2.000000000000003553 ) ) ;
#216 = EDGE_CURVE ( 'NONE', #9, #61, #24, .T. ) ;
#217 = APPLICATION_PROTOCOL_DEFINITION ( 'international standard', 'config_control_design', 1994, #297 ) ;
#218 = CARTESIAN_POINT ( 'NONE',  ( 0.000000000000000000, 0.000000000000000000, 2.200000000000007283 ) ) ;
#219 = ORIENTED_EDGE ( 'NONE', *, *, #34, .F. ) ;
#220 = CIRCLE ( 'NONE', #8, 2.000000000000000000 ) ;
#221 = ORIENTED_EDGE ( 'NONE', *, *, #155, .F. ) ;
#222 = CALENDAR_DATE ( 2022, 7, 7 ) ;
#223 = VERTEX_POINT ( 'NONE', #73 ) ;
#224 = VERTEX_POINT ( 'NONE', #197 ) ;
#225 = APPROVAL_DATE_TIME ( #293, #290 ) ;
#226 = CIRCLE ( 'NONE', #57, 0.2000000000000000944 ) ;
#227 = LOCAL_TIME ( 14, 58, 17.00000000000000000, #1 ) ;
#228 = DIRECTION ( 'NONE',  ( 0.000000000000000000, 0.000000000000000000, 1.000000000000000000 ) ) ;
#229 = CARTESIAN_POINT ( 'NONE',  ( 0.000000000000000000, 0.000000000000000000, 0.000000000000000000 ) ) ;
#230 = LINE ( 'NONE', #275, #143 ) ;
#231 = CARTESIAN_POINT ( 'NONE',  ( 1.000000000000000000, 1.224646799147353207E-16, 252.0000000000000000 ) ) ;
#232 = DIRECTION ( 'NONE',  ( 0.000000000000000000, 0.000000000000000000, 1.000000000000000000 ) ) ;
#233 = PERSON_AND_ORGANIZATION ( #266, #85 ) ;
#234 = DIRECTION ( 'NONE',  ( 0.000000000000000000, 0.000000000000000000, 1.000000000000000000 ) ) ;
#235 = PERSON_AND_ORGANIZATION_ROLE ( 'design_supplier' ) ;
#236 = ORIENTED_EDGE ( 'NONE', *, *, #155, .T. ) ;
#237 = AXIS2_PLACEMENT_3D ( 'NONE', #213, #192, #281 ) ;
#238 = ORIENTED_EDGE ( 'NONE', *, *, #179, .T. ) ;
#239 = PRODUCT_DEFINITION ( 'NEZNÁMÝ', '', #148, #84 ) ;
#240 = PERSON_AND_ORGANIZATION ( #266, #85 ) ;
#241 = CIRCLE ( 'NONE', #182, 1.200000000000000178 ) ;
#242 = ORIENTED_EDGE ( 'NONE', *, *, #93, .F. ) ;
#243 = AXIS2_PLACEMENT_3D ( 'NONE', #28, #234, #284 ) ;
#244 = DIRECTION ( 'NONE',  ( 0.000000000000000000, 0.000000000000000000, 1.000000000000000000 ) ) ;
#245 = CALENDAR_DATE ( 2022, 7, 7 ) ;
#246 = EDGE_CURVE ( 'NONE', #277, #177, #97, .T. ) ;
#247 = DIRECTION ( 'NONE',  ( -0.000000000000000000, -0.000000000000000000, -1.000000000000000000 ) ) ;
#248 = DIRECTION ( 'NONE',  ( 1.000000000000000000, 0.000000000000000000, 0.000000000000000000 ) ) ;
#249 = CC_DESIGN_APPROVAL ( #290, ( #289 ) ) ;
#250 = DIRECTION ( 'NONE',  ( -0.000000000000000000, -0.000000000000000000, -1.000000000000000000 ) ) ;
#251 = CYLINDRICAL_SURFACE ( 'NONE', #33, 2.000000000000000000 ) ;
#252 =( NAMED_UNIT ( * ) SI_UNIT ( $, .STERADIAN. ) SOLID_ANGLE_UNIT ( ) );
#253 = CARTESIAN_POINT ( 'NONE',  ( 0.000000000000000000, 0.000000000000000000, 0.000000000000000000 ) ) ;
#254 = DIRECTION ( 'NONE',  ( 1.000000000000000000, 0.000000000000000000, 0.000000000000000000 ) ) ;
#255 = CC_DESIGN_APPROVAL ( #195, ( #148 ) ) ;
#256 = DIRECTION ( 'NONE',  ( 1.000000000000000000, 0.000000000000000000, 0.000000000000000000 ) ) ;
#257 = FACE_OUTER_BOUND ( 'NONE', #137, .T. ) ;
#258 = CC_DESIGN_PERSON_AND_ORGANIZATION_ASSIGNMENT ( #240, #235, ( #148 ) ) ;
#259 = APPROVAL_DATE_TIME ( #12, #195 ) ;
#260 = DIRECTION ( 'NONE',  ( 0.000000000000000000, 0.000000000000000000, 1.000000000000000000 ) ) ;
#261 = TOROIDAL_SURFACE ( 'NONE', #185, 1.200000000000000178, 0.2000000000000000111 ) ;
#262 = AXIS2_PLACEMENT_3D ( 'NONE', #287, #269, #120 ) ;
#263 = ORIENTED_EDGE ( 'NONE', *, *, #199, .F. ) ;
#264 = EDGE_LOOP ( 'NONE', ( #219, #86, #236, #288 ) ) ;
#265 = SHAPE_DEFINITION_REPRESENTATION ( #27, #160 ) ;
#266 = PERSON ( 'NEURÈENÝ', 'NEURÈENÝ', 'NEURÈENÝ', ('NEURÈENÝ'), ('NEURÈENÝ'), ('NEURÈENÝ') ) ;
#267 = ORIENTED_EDGE ( 'NONE', *, *, #150, .F. ) ;
#268 = APPROVAL_DATE_TIME ( #88, #299 ) ;
#269 = DIRECTION ( 'NONE',  ( 1.224646799147353207E-16, 1.000000000000000000, -0.000000000000000000 ) ) ;
#270 = FACE_OUTER_BOUND ( 'NONE', #296, .T. ) ;
#271 = CC_DESIGN_PERSON_AND_ORGANIZATION_ASSIGNMENT ( #65, #300, ( #148 ) ) ;
#272 = CC_DESIGN_APPROVAL ( #299, ( #239 ) ) ;
#273 = CARTESIAN_POINT ( 'NONE',  ( -1.000000000000000000, 0.000000000000000000, 252.0000000000000000 ) ) ;
#274 = CARTESIAN_POINT ( 'NONE',  ( 0.000000000000000000, 0.000000000000000000, 2.200000000000007283 ) ) ;
#275 = CARTESIAN_POINT ( 'NONE',  ( 2.000000000000000000, 2.449293598294706414E-16, 2.000000000000000000 ) ) ;
#276 = AXIS2_PLACEMENT_3D ( 'NONE', #175, #260, #58 ) ;
#277 = VERTEX_POINT ( 'NONE', #102 ) ;
#278 = ADVANCED_FACE ( 'NONE', ( #257 ), #280, .T. ) ;
#279 = PRODUCT ( '13bd', '13bd', '', ( #78 ) ) ;
#280 = CYLINDRICAL_SURFACE ( 'NONE', #173, 1.000000000000000000 ) ;
#281 = DIRECTION ( 'NONE',  ( 1.000000000000000000, 0.000000000000000000, 0.000000000000000000 ) ) ;
#282 = VECTOR ( 'NONE', #250, 1000.000000000000000 ) ;
#283 = DIRECTION ( 'NONE',  ( -1.000000000000000000, 0.000000000000000000, 0.000000000000000000 ) ) ;
#284 = DIRECTION ( 'NONE',  ( 1.000000000000000000, 0.000000000000000000, 0.000000000000000000 ) ) ;
#285 = APPLICATION_PROTOCOL_DEFINITION ( 'international standard', 'config_control_design', 1994, #123 ) ;
#286 = DIRECTION ( 'NONE',  ( 0.000000000000000000, 0.000000000000000000, -1.000000000000000000 ) ) ;
#287 = CARTESIAN_POINT ( 'NONE',  ( -1.200000000000000178, 1.469576158976823799E-16, 2.200000000000007283 ) ) ;
#288 = ORIENTED_EDGE ( 'NONE', *, *, #216, .T. ) ;
#289 = SECURITY_CLASSIFICATION ( '', '', #56 ) ;
#290 = APPROVAL ( #154, 'NEURÈENÝ' ) ;
#291 = ORIENTED_EDGE ( 'NONE', *, *, #72, .T. ) ;
#292 = ORIENTED_EDGE ( 'NONE', *, *, #216, .F. ) ;
#293 = DATE_AND_TIME ( #17, #302 ) ;
#294 = EDGE_CURVE ( 'NONE', #158, #224, #54, .T. ) ;
#295 = ORIENTED_EDGE ( 'NONE', *, *, #246, .F. ) ;
#296 = EDGE_LOOP ( 'NONE', ( #37, #109 ) ) ;
#297 = APPLICATION_CONTEXT ( 'configuration controlled 3d designs of mechanical parts and assemblies' ) ;
#298 = FACE_BOUND ( 'NONE', #7, .T. ) ;
#299 = APPROVAL ( #106, 'NEURÈENÝ' ) ;
#300 = PERSON_AND_ORGANIZATION_ROLE ( 'creator' ) ;
#301 = CYLINDRICAL_SURFACE ( 'NONE', #212, 2.000000000000000000 ) ;
#302 = LOCAL_TIME ( 14, 58, 17.00000000000000000, #201 ) ;
#303 = DIRECTION ( 'NONE',  ( -0.000000000000000000, -0.000000000000000000, -1.000000000000000000 ) ) ;
#304 = CARTESIAN_POINT ( 'NONE',  ( 0.000000000000000000, 0.000000000000000000, 2.200000000000007283 ) ) ;
#305 = CC_DESIGN_PERSON_AND_ORGANIZATION_ASSIGNMENT ( #233, #29, ( #279 ) ) ;
#306 = FACE_OUTER_BOUND ( 'NONE', #82, .T. ) ;
#307 =( LENGTH_UNIT ( ) NAMED_UNIT ( * ) SI_UNIT ( .MILLI., .METRE. ) );
ENDSEC;
END-ISO-10303-21;
