ISO-10303-21;
HEADER;
FILE_DESCRIPTION (( 'STEP AP203' ),
    '1' );
FILE_NAME ('0674.STEP',
    '2022-07-07T12:35:38',
    ( '' ),
    ( '' ),
    'SwSTEP 2.0',
    'SolidWorks 2019',
    '' );
FILE_SCHEMA (( 'CONFIG_CONTROL_DESIGN' ));
ENDSEC;

DATA;
#1 = APPROVAL_PERSON_ORGANIZATION ( #200, #238, #183 ) ;
#2 = EDGE_LOOP ( 'NONE', ( #40, #133 ) ) ;
#3 = FACE_OUTER_BOUND ( 'NONE', #2, .T. ) ;
#4 = DIRECTION ( 'NONE',  ( -1.000000000000000000, 0.000000000000000000, 0.000000000000000000 ) ) ;
#5 = ORIENTED_EDGE ( 'NONE', *, *, #60, .F. ) ;
#6 = LOCAL_TIME ( 14, 35, 38.00000000000000000, #81 ) ;
#7 = DIRECTION ( 'NONE',  ( 1.000000000000000000, 0.000000000000000000, 0.000000000000000000 ) ) ;
#8 = ADVANCED_FACE ( 'NONE', ( #67, #3 ), #227, .T. ) ;
#9 = FACE_OUTER_BOUND ( 'NONE', #280, .T. ) ;
#10 = AXIS2_PLACEMENT_3D ( 'NONE', #248, #57, #122 ) ;
#11 = DIRECTION ( 'NONE',  ( 0.000000000000000000, 0.000000000000000000, 1.000000000000000000 ) ) ;
#12 = LINE ( 'NONE', #291, #284 ) ;
#13 = AXIS2_PLACEMENT_3D ( 'NONE', #76, #51, #273 ) ;
#14 = EDGE_CURVE ( 'NONE', #286, #233, #194, .T. ) ;
#15 = PERSON_AND_ORGANIZATION ( #305, #162 ) ;
#16 = CARTESIAN_POINT ( 'NONE',  ( 0.000000000000000000, 0.000000000000000000, 5.000000000000000000 ) ) ;
#17 = MECHANICAL_CONTEXT ( 'NONE', #232, 'mechanical' ) ;
#18 = EDGE_LOOP ( 'NONE', ( #86, #187, #211, #188 ) ) ;
#19 = CALENDAR_DATE ( 2022, 7, 7 ) ;
#20 = CC_DESIGN_PERSON_AND_ORGANIZATION_ASSIGNMENT ( #127, #299, ( #97 ) ) ;
#21 = FACE_OUTER_BOUND ( 'NONE', #165, .T. ) ;
#22 = CARTESIAN_POINT ( 'NONE',  ( 0.000000000000000000, 0.000000000000000000, 255.0000000000000000 ) ) ;
#23 = VERTEX_POINT ( 'NONE', #36 ) ;
#24 = DIRECTION ( 'NONE',  ( 1.000000000000000000, 0.000000000000000000, 0.000000000000000000 ) ) ;
#25 = DIRECTION ( 'NONE',  ( 1.000000000000000000, 0.000000000000000000, 0.000000000000000000 ) ) ;
#26 = ADVANCED_FACE ( 'NONE', ( #132 ), #239, .T. ) ;
#27 = CC_DESIGN_PERSON_AND_ORGANIZATION_ASSIGNMENT ( #202, #176, ( #80 ) ) ;
#28 = CARTESIAN_POINT ( 'NONE',  ( -3.750000000000000000, 0.000000000000000000, 255.0000000000000000 ) ) ;
#29 = MANIFOLD_SOLID_BREP ( 'Zaoblit1', #30 ) ;
#30 = CLOSED_SHELL ( 'NONE', ( #153, #54, #45, #26, #8, #43, #178, #128, #112 ) ) ;
#31 = CARTESIAN_POINT ( 'NONE',  ( -3.949999999999999734, 4.837354856632044071E-16, 5.000000000000005329 ) ) ;
#32 = APPLICATION_PROTOCOL_DEFINITION ( 'international standard', 'config_control_design', 1994, #181 ) ;
#33 = DATE_TIME_ROLE ( 'classification_date' ) ;
#34 = AXIS2_PLACEMENT_3D ( 'NONE', #16, #258, #205 ) ;
#35 = SHAPE_DEFINITION_REPRESENTATION ( #300, #219 ) ;
#36 = CARTESIAN_POINT ( 'NONE',  ( 3.750000000000000000, 4.592425496802573972E-16, 5.200000000000009948 ) ) ;
#37 = PERSON_AND_ORGANIZATION ( #305, #162 ) ;
#38 = DIRECTION ( 'NONE',  ( -0.000000000000000000, -0.000000000000000000, -1.000000000000000000 ) ) ;
#39 =( NAMED_UNIT ( * ) PLANE_ANGLE_UNIT ( ) SI_UNIT ( $, .RADIAN. ) );
#40 = ORIENTED_EDGE ( 'NONE', *, *, #212, .T. ) ;
#41 = AXIS2_PLACEMENT_3D ( 'NONE', #195, #98, #25 ) ;
#42 = CIRCLE ( 'NONE', #72, 3.750000000000000000 ) ;
#43 = ADVANCED_FACE ( 'NONE', ( #203 ), #84, .F. ) ;
#44 = ORIENTED_EDGE ( 'NONE', *, *, #157, .F. ) ;
#45 = ADVANCED_FACE ( 'NONE', ( #21 ), #140, .T. ) ;
#46 = ORIENTED_EDGE ( 'NONE', *, *, #267, .F. ) ;
#47 = CARTESIAN_POINT ( 'NONE',  ( 0.000000000000000000, 0.000000000000000000, 0.000000000000000000 ) ) ;
#48 = AXIS2_PLACEMENT_3D ( 'NONE', #197, #100, #292 ) ;
#49 = VERTEX_POINT ( 'NONE', #69 ) ;
#50 = CYLINDRICAL_SURFACE ( 'NONE', #93, 3.750000000000000000 ) ;
#51 = DIRECTION ( 'NONE',  ( -0.000000000000000000, -0.000000000000000000, -1.000000000000000000 ) ) ;
#52 = EDGE_CURVE ( 'NONE', #68, #263, #236, .T. ) ;
#53 = CARTESIAN_POINT ( 'NONE',  ( 0.000000000000000000, 0.000000000000000000, 5.200000000000009948 ) ) ;
#54 = ADVANCED_FACE ( 'NONE', ( #210 ), #50, .T. ) ;
#55 = AXIS2_PLACEMENT_3D ( 'NONE', #47, #135, #90 ) ;
#56 = CC_DESIGN_APPROVAL ( #114, ( #214 ) ) ;
#57 = DIRECTION ( 'NONE',  ( -0.000000000000000000, -0.000000000000000000, -1.000000000000000000 ) ) ;
#58 = DIRECTION ( 'NONE',  ( 1.000000000000000000, 0.000000000000000000, 0.000000000000000000 ) ) ;
#59 = COORDINATED_UNIVERSAL_TIME_OFFSET ( 1, 0, .AHEAD. ) ;
#60 = EDGE_CURVE ( 'NONE', #287, #263, #71, .T. ) ;
#61 = DATE_AND_TIME ( #276, #255 ) ;
#62 = PRODUCT_RELATED_PRODUCT_CATEGORY ( 'detail', '', ( #97 ) ) ;
#63 = AXIS2_PLACEMENT_3D ( 'NONE', #143, #149, #243 ) ;
#64 = PERSON_AND_ORGANIZATION_ROLE ( 'creator' ) ;
#65 = DIRECTION ( 'NONE',  ( 0.000000000000000000, 0.000000000000000000, 1.000000000000000000 ) ) ;
#66 = PERSON_AND_ORGANIZATION ( #305, #162 ) ;
#67 = FACE_BOUND ( 'NONE', #118, .T. ) ;
#68 = VERTEX_POINT ( 'NONE', #288 ) ;
#69 = CARTESIAN_POINT ( 'NONE',  ( 3.750000000000000000, 4.592425496802573972E-16, 255.0000000000000000 ) ) ;
#70 = ORIENTED_EDGE ( 'NONE', *, *, #231, .T. ) ;
#71 = LINE ( 'NONE', #189, #254 ) ;
#72 = AXIS2_PLACEMENT_3D ( 'NONE', #268, #124, #58 ) ;
#73 = EDGE_LOOP ( 'NONE', ( #264, #88, #160, #282 ) ) ;
#74 = EDGE_CURVE ( 'NONE', #287, #186, #91, .T. ) ;
#75 = CARTESIAN_POINT ( 'NONE',  ( -3.750000000000000000, 0.000000000000000000, 5.200000000000009948 ) ) ;
#76 = CARTESIAN_POINT ( 'NONE',  ( 0.000000000000000000, 0.000000000000000000, 5.000000000000000000 ) ) ;
#77 = DIRECTION ( 'NONE',  ( 0.000000000000000000, 0.000000000000000000, 1.000000000000000000 ) ) ;
#78 = FACE_OUTER_BOUND ( 'NONE', #229, .T. ) ;
#79 = AXIS2_PLACEMENT_3D ( 'NONE', #259, #182, #4 ) ;
#80 = PRODUCT_DEFINITION_FORMATION_WITH_SPECIFIED_SOURCE ( 'LIBOVOLNÝ', '', #97, .NOT_KNOWN. ) ;
#81 = COORDINATED_UNIVERSAL_TIME_OFFSET ( 1, 0, .AHEAD. ) ;
#82 = APPROVAL_ROLE ( '' ) ;
#83 = CC_DESIGN_PERSON_AND_ORGANIZATION_ASSIGNMENT ( #66, #250, ( #80 ) ) ;
#84 = PLANE ( 'NONE',  #55 ) ;
#85 = DIRECTION ( 'NONE',  ( 0.000000000000000000, 0.000000000000000000, 1.000000000000000000 ) ) ;
#86 = ORIENTED_EDGE ( 'NONE', *, *, #271, .F. ) ;
#87 = VECTOR ( 'NONE', #170, 1000.000000000000000 ) ;
#88 = ORIENTED_EDGE ( 'NONE', *, *, #157, .T. ) ;
#89 = ORIENTED_EDGE ( 'NONE', *, *, #271, .T. ) ;
#90 = DIRECTION ( 'NONE',  ( 1.000000000000000000, 0.000000000000000000, -0.000000000000000000 ) ) ;
#91 = CIRCLE ( 'NONE', #224, 6.000000000000000888 ) ;
#92 = DIRECTION ( 'NONE',  ( 0.000000000000000000, -1.000000000000000000, 0.000000000000000000 ) ) ;
#93 = AXIS2_PLACEMENT_3D ( 'NONE', #22, #117, #166 ) ;
#94 = CARTESIAN_POINT ( 'NONE',  ( 0.000000000000000000, 0.000000000000000000, 5.000000000000000000 ) ) ;
#95 = CARTESIAN_POINT ( 'NONE',  ( -6.000000000000000888, 0.000000000000000000, 5.000000000000000000 ) ) ;
#96 = CARTESIAN_POINT ( 'NONE',  ( 0.000000000000000000, 0.000000000000000000, 255.0000000000000000 ) ) ;
#97 = PRODUCT ( '0674', '0674', '', ( #17 ) ) ;
#98 = DIRECTION ( 'NONE',  ( 0.000000000000000000, 0.000000000000000000, 1.000000000000000000 ) ) ;
#99 = EDGE_CURVE ( 'NONE', #23, #116, #180, .T. ) ;
#100 = DIRECTION ( 'NONE',  ( 0.000000000000000000, 0.000000000000000000, 1.000000000000000000 ) ) ;
#101 = DATE_AND_TIME ( #222, #6 ) ;
#102 = AXIS2_PLACEMENT_3D ( 'NONE', #94, #126, #172 ) ;
#103 = APPROVAL_STATUS ( 'not_yet_approved' ) ;
#104 = ORIENTED_EDGE ( 'NONE', *, *, #217, .T. ) ;
#105 = DATE_TIME_ROLE ( 'creation_date' ) ;
#106 = EDGE_CURVE ( 'NONE', #186, #68, #290, .T. ) ;
#107 = VERTEX_POINT ( 'NONE', #28 ) ;
#108 = ORIENTED_EDGE ( 'NONE', *, *, #52, .T. ) ;
#109 = AXIS2_PLACEMENT_3D ( 'NONE', #304, #65, #256 ) ;
#110 = AXIS2_PLACEMENT_3D ( 'NONE', #147, #77, #247 ) ;
#111 = COORDINATED_UNIVERSAL_TIME_OFFSET ( 1, 0, .AHEAD. ) ;
#112 = ADVANCED_FACE ( 'NONE', ( #78 ), #204, .F. ) ;
#113 = ORIENTED_EDGE ( 'NONE', *, *, #74, .F. ) ;
#114 = APPROVAL ( #103, 'NEURÈENÝ' ) ;
#115 = AXIS2_PLACEMENT_3D ( 'NONE', #213, #92, #190 ) ;
#116 = VERTEX_POINT ( 'NONE', #296 ) ;
#117 = DIRECTION ( 'NONE',  ( -0.000000000000000000, -0.000000000000000000, -1.000000000000000000 ) ) ;
#118 = EDGE_LOOP ( 'NONE', ( #208, #104 ) ) ;
#119 = DIRECTION ( 'NONE',  ( 1.000000000000000000, 0.000000000000000000, 0.000000000000000000 ) ) ;
#120 = CARTESIAN_POINT ( 'NONE',  ( 6.000000000000000888, 7.347880794884120722E-16, 0.000000000000000000 ) ) ;
#121 = CC_DESIGN_SECURITY_CLASSIFICATION ( #214, ( #80 ) ) ;
#122 = DIRECTION ( 'NONE',  ( -1.000000000000000000, 0.000000000000000000, 0.000000000000000000 ) ) ;
#123 = DIRECTION ( 'NONE',  ( 1.000000000000000000, 0.000000000000000000, 0.000000000000000000 ) ) ;
#124 = DIRECTION ( 'NONE',  ( 0.000000000000000000, 0.000000000000000000, 1.000000000000000000 ) ) ;
#125 = LOCAL_TIME ( 14, 35, 38.00000000000000000, #111 ) ;
#126 = DIRECTION ( 'NONE',  ( 0.000000000000000000, 0.000000000000000000, 1.000000000000000000 ) ) ;
#127 = PERSON_AND_ORGANIZATION ( #305, #162 ) ;
#128 = ADVANCED_FACE ( 'NONE', ( #295 ), #145, .T. ) ;
#129 = PERSON_AND_ORGANIZATION ( #305, #162 ) ;
#130 = AXIS2_PLACEMENT_3D ( 'NONE', #230, #206, #131 ) ;
#131 = DIRECTION ( 'NONE',  ( 1.000000000000000000, 0.000000000000000000, 0.000000000000000000 ) ) ;
#132 = FACE_OUTER_BOUND ( 'NONE', #283, .T. ) ;
#133 = ORIENTED_EDGE ( 'NONE', *, *, #74, .T. ) ;
#134 = ORIENTED_EDGE ( 'NONE', *, *, #60, .T. ) ;
#135 = DIRECTION ( 'NONE',  ( 0.000000000000000000, 0.000000000000000000, 1.000000000000000000 ) ) ;
#136 = CC_DESIGN_DATE_AND_TIME_ASSIGNMENT ( #174, #105, ( #173 ) ) ;
#137 = EDGE_LOOP ( 'NONE', ( #262, #164 ) ) ;
#138 = ORIENTED_EDGE ( 'NONE', *, *, #106, .F. ) ;
#139 = AXIS2_PLACEMENT_3D ( 'NONE', #216, #193, #269 ) ;
#140 = CYLINDRICAL_SURFACE ( 'NONE', #34, 6.000000000000000888 ) ;
#141 = EDGE_LOOP ( 'NONE', ( #185, #240 ) ) ;
#142 = CARTESIAN_POINT ( 'NONE',  ( 0.000000000000000000, 0.000000000000000000, 5.000000000000000000 ) ) ;
#143 = CARTESIAN_POINT ( 'NONE',  ( 0.000000000000000000, 0.000000000000000000, 5.000000000000000000 ) ) ;
#144 = CIRCLE ( 'NONE', #13, 3.949999999999999734 ) ;
#145 = PLANE ( 'NONE',  #260 ) ;
#146 = LOCAL_TIME ( 14, 35, 38.00000000000000000, #155 ) ;
#147 = CARTESIAN_POINT ( 'NONE',  ( 0.000000000000000000, 0.000000000000000000, 5.200000000000009948 ) ) ;
#148 = CARTESIAN_POINT ( 'NONE',  ( -3.750000000000000000, 0.000000000000000000, 255.0000000000000000 ) ) ;
#149 = DIRECTION ( 'NONE',  ( -0.000000000000000000, -0.000000000000000000, -1.000000000000000000 ) ) ;
#150 = CC_DESIGN_APPROVAL ( #307, ( #173 ) ) ;
#151 = APPROVAL_STATUS ( 'not_yet_approved' ) ;
#152 = PERSON_AND_ORGANIZATION_ROLE ( 'classification_officer' ) ;
#153 = ADVANCED_FACE ( 'NONE', ( #294 ), #278, .F. ) ;
#154 = APPROVAL_DATE_TIME ( #61, #114 ) ;
#155 = COORDINATED_UNIVERSAL_TIME_OFFSET ( 1, 0, .AHEAD. ) ;
#156 = ORIENTED_EDGE ( 'NONE', *, *, #217, .F. ) ;
#157 = EDGE_CURVE ( 'NONE', #49, #23, #12, .T. ) ;
#158 = DATE_AND_TIME ( #251, #146 ) ;
#159 = DIRECTION ( 'NONE',  ( 1.224646799147353207E-16, 1.000000000000000000, -0.000000000000000000 ) ) ;
#160 = ORIENTED_EDGE ( 'NONE', *, *, #246, .T. ) ;
#161 = CIRCLE ( 'NONE', #139, 6.000000000000000888 ) ;
#162 = ORGANIZATION ( 'NEURÈENÝ', 'NEURÈENÝ', '' ) ;
#163 = ORIENTED_EDGE ( 'NONE', *, *, #106, .T. ) ;
#164 = ORIENTED_EDGE ( 'NONE', *, *, #192, .T. ) ;
#165 = EDGE_LOOP ( 'NONE', ( #113, #134, #228, #138 ) ) ;
#166 = DIRECTION ( 'NONE',  ( -1.000000000000000000, 0.000000000000000000, 0.000000000000000000 ) ) ;
#167 = CYLINDRICAL_SURFACE ( 'NONE', #10, 3.750000000000000000 ) ;
#168 = CARTESIAN_POINT ( 'NONE',  ( 6.000000000000000888, 7.347880794884120722E-16, 5.000000000000000000 ) ) ;
#169 = EDGE_CURVE ( 'NONE', #263, #68, #161, .T. ) ;
#170 = DIRECTION ( 'NONE',  ( -0.000000000000000000, -0.000000000000000000, -1.000000000000000000 ) ) ;
#171 = DIRECTION ( 'NONE',  ( -0.000000000000000000, -0.000000000000000000, -1.000000000000000000 ) ) ;
#172 = DIRECTION ( 'NONE',  ( 1.000000000000000000, 0.000000000000000000, 0.000000000000000000 ) ) ;
#173 = PRODUCT_DEFINITION ( 'NEZNÁMÝ', '', #80, #241 ) ;
#174 = DATE_AND_TIME ( #19, #125 ) ;
#175 = VECTOR ( 'NONE', #171, 1000.000000000000000 ) ;
#176 = PERSON_AND_ORGANIZATION_ROLE ( 'design_supplier' ) ;
#177 = COORDINATED_UNIVERSAL_TIME_OFFSET ( 1, 0, .AHEAD. ) ;
#178 = ADVANCED_FACE ( 'NONE', ( #9 ), #167, .T. ) ;
#179 = CALENDAR_DATE ( 2022, 7, 7 ) ;
#180 = CIRCLE ( 'NONE', #115, 0.1999999999999996503 ) ;
#181 = APPLICATION_CONTEXT ( 'configuration controlled 3d designs of mechanical parts and assemblies' ) ;
#182 = DIRECTION ( 'NONE',  ( -0.000000000000000000, -0.000000000000000000, -1.000000000000000000 ) ) ;
#183 = APPROVAL_ROLE ( '' ) ;
#184 = DIRECTION ( 'NONE',  ( -1.000000000000000000, 1.224646799147353454E-16, 0.000000000000000000 ) ) ;
#185 = ORIENTED_EDGE ( 'NONE', *, *, #52, .F. ) ;
#186 = VERTEX_POINT ( 'NONE', #95 ) ;
#187 = ORIENTED_EDGE ( 'NONE', *, *, #14, .T. ) ;
#188 = ORIENTED_EDGE ( 'NONE', *, *, #99, .F. ) ;
#189 = CARTESIAN_POINT ( 'NONE',  ( 6.000000000000000888, 7.347880794884120722E-16, 5.000000000000000000 ) ) ;
#190 = DIRECTION ( 'NONE',  ( 0.000000000000000000, 0.000000000000000000, -1.000000000000000000 ) ) ;
#191 = DIRECTION ( 'NONE',  ( 0.000000000000000000, 0.000000000000000000, 1.000000000000000000 ) ) ;
#192 = EDGE_CURVE ( 'NONE', #49, #107, #201, .T. ) ;
#193 = DIRECTION ( 'NONE',  ( 0.000000000000000000, 0.000000000000000000, 1.000000000000000000 ) ) ;
#194 = CIRCLE ( 'NONE', #293, 0.1999999999999996503 ) ;
#195 = CARTESIAN_POINT ( 'NONE',  ( 0.000000000000000000, 0.000000000000000000, 5.200000000000009948 ) ) ;
#196 = CIRCLE ( 'NONE', #63, 3.949999999999999734 ) ;
#197 = CARTESIAN_POINT ( 'NONE',  ( 0.000000000000000000, 0.000000000000000000, 255.0000000000000000 ) ) ;
#198 = LINE ( 'NONE', #148, #87 ) ;
#199 = UNCERTAINTY_MEASURE_WITH_UNIT (LENGTH_MEASURE( 1.000000000000000082E-05 ), #272, 'distance_accuracy_value', 'NONE');
#200 = PERSON_AND_ORGANIZATION ( #305, #162 ) ;
#201 = CIRCLE ( 'NONE', #48, 3.750000000000000000 ) ;
#202 = PERSON_AND_ORGANIZATION ( #305, #162 ) ;
#203 = FACE_OUTER_BOUND ( 'NONE', #141, .T. ) ;
#204 = TOROIDAL_SURFACE ( 'NONE', #41, 3.949999999999999734, 0.2000000000000000111 ) ;
#205 = DIRECTION ( 'NONE',  ( -1.000000000000000000, 0.000000000000000000, 0.000000000000000000 ) ) ;
#206 = DIRECTION ( 'NONE',  ( 0.000000000000000000, 0.000000000000000000, 1.000000000000000000 ) ) ;
#207 = ORIENTED_EDGE ( 'NONE', *, *, #246, .F. ) ;
#208 = ORIENTED_EDGE ( 'NONE', *, *, #261, .T. ) ;
#209 = ORIENTED_EDGE ( 'NONE', *, *, #212, .F. ) ;
#210 = FACE_OUTER_BOUND ( 'NONE', #73, .T. ) ;
#211 = ORIENTED_EDGE ( 'NONE', *, *, #261, .F. ) ;
#212 = EDGE_CURVE ( 'NONE', #186, #287, #244, .T. ) ;
#213 = CARTESIAN_POINT ( 'NONE',  ( 3.949999999999999734, 0.000000000000000000, 5.200000000000009948 ) ) ;
#214 = SECURITY_CLASSIFICATION ( '', '', #277 ) ;
#215 = CARTESIAN_POINT ( 'NONE',  ( 0.000000000000000000, 0.000000000000000000, 255.0000000000000000 ) ) ;
#216 = CARTESIAN_POINT ( 'NONE',  ( 0.000000000000000000, 0.000000000000000000, 0.000000000000000000 ) ) ;
#217 = EDGE_CURVE ( 'NONE', #233, #116, #144, .T. ) ;
#218 = DIRECTION ( 'NONE',  ( 0.000000000000000000, 0.000000000000000000, 1.000000000000000000 ) ) ;
#219 = ADVANCED_BREP_SHAPE_REPRESENTATION ( '0674', ( #29, #130 ), #265 ) ;
#220 = AXIS2_PLACEMENT_3D ( 'NONE', #301, #85, #24 ) ;
#221 = CARTESIAN_POINT ( 'NONE',  ( -6.000000000000000888, 0.000000000000000000, 5.000000000000000000 ) ) ;
#222 = CALENDAR_DATE ( 2022, 7, 7 ) ;
#223 = APPROVAL_STATUS ( 'not_yet_approved' ) ;
#224 = AXIS2_PLACEMENT_3D ( 'NONE', #142, #242, #119 ) ;
#225 = CIRCLE ( 'NONE', #110, 3.750000000000000000 ) ;
#226 = CC_DESIGN_DATE_AND_TIME_ASSIGNMENT ( #158, #33, ( #214 ) ) ;
#227 = PLANE ( 'NONE',  #109 ) ;
#228 = ORIENTED_EDGE ( 'NONE', *, *, #169, .T. ) ;
#229 = EDGE_LOOP ( 'NONE', ( #306, #207, #235, #156 ) ) ;
#230 = CARTESIAN_POINT ( 'NONE',  ( 0.000000000000000000, 0.000000000000000000, 0.000000000000000000 ) ) ;
#231 = EDGE_CURVE ( 'NONE', #107, #286, #198, .T. ) ;
#232 = APPLICATION_CONTEXT ( 'configuration controlled 3d designs of mechanical parts and assemblies' ) ;
#233 = VERTEX_POINT ( 'NONE', #31 ) ;
#234 = APPROVAL_PERSON_ORGANIZATION ( #129, #114, #82 ) ;
#235 = ORIENTED_EDGE ( 'NONE', *, *, #99, .T. ) ;
#236 = CIRCLE ( 'NONE', #220, 6.000000000000000888 ) ;
#237 = AXIS2_PLACEMENT_3D ( 'NONE', #215, #218, #7 ) ;
#238 = APPROVAL ( #223, 'NEURÈENÝ' ) ;
#239 = CYLINDRICAL_SURFACE ( 'NONE', #79, 6.000000000000000888 ) ;
#240 = ORIENTED_EDGE ( 'NONE', *, *, #169, .F. ) ;
#241 = DESIGN_CONTEXT ( 'detailed design', #181, 'design' ) ;
#242 = DIRECTION ( 'NONE',  ( 0.000000000000000000, 0.000000000000000000, 1.000000000000000000 ) ) ;
#243 = DIRECTION ( 'NONE',  ( 1.000000000000000000, 0.000000000000000000, 0.000000000000000000 ) ) ;
#244 = CIRCLE ( 'NONE', #102, 6.000000000000000888 ) ;
#245 = DIRECTION ( 'NONE',  ( -0.000000000000000000, -0.000000000000000000, -1.000000000000000000 ) ) ;
#246 = EDGE_CURVE ( 'NONE', #23, #286, #42, .T. ) ;
#247 = DIRECTION ( 'NONE',  ( 1.000000000000000000, 0.000000000000000000, 0.000000000000000000 ) ) ;
#248 = CARTESIAN_POINT ( 'NONE',  ( 0.000000000000000000, 0.000000000000000000, 255.0000000000000000 ) ) ;
#249 = APPROVAL_PERSON_ORGANIZATION ( #37, #307, #274 ) ;
#250 = PERSON_AND_ORGANIZATION_ROLE ( 'creator' ) ;
#251 = CALENDAR_DATE ( 2022, 7, 7 ) ;
#252 = CC_DESIGN_PERSON_AND_ORGANIZATION_ASSIGNMENT ( #15, #64, ( #173 ) ) ;
#253 = DATE_AND_TIME ( #179, #303 ) ;
#254 = VECTOR ( 'NONE', #38, 1000.000000000000000 ) ;
#255 = LOCAL_TIME ( 14, 35, 38.00000000000000000, #177 ) ;
#256 = DIRECTION ( 'NONE',  ( 1.000000000000000000, 0.000000000000000000, -0.000000000000000000 ) ) ;
#257 = APPLICATION_PROTOCOL_DEFINITION ( 'international standard', 'config_control_design', 1994, #232 ) ;
#258 = DIRECTION ( 'NONE',  ( -0.000000000000000000, -0.000000000000000000, -1.000000000000000000 ) ) ;
#259 = CARTESIAN_POINT ( 'NONE',  ( 0.000000000000000000, 0.000000000000000000, 5.000000000000000000 ) ) ;
#260 = AXIS2_PLACEMENT_3D ( 'NONE', #96, #11, #270 ) ;
#261 = EDGE_CURVE ( 'NONE', #116, #233, #196, .T. ) ;
#262 = ORIENTED_EDGE ( 'NONE', *, *, #267, .T. ) ;
#263 = VERTEX_POINT ( 'NONE', #120 ) ;
#264 = ORIENTED_EDGE ( 'NONE', *, *, #192, .F. ) ;
#265 =( GEOMETRIC_REPRESENTATION_CONTEXT ( 3 ) GLOBAL_UNCERTAINTY_ASSIGNED_CONTEXT ( ( #199 ) ) GLOBAL_UNIT_ASSIGNED_CONTEXT ( ( #272, #39, #302 ) ) REPRESENTATION_CONTEXT ( 'NONE', 'WORKASPACE' ) );
#266 = CARTESIAN_POINT ( 'NONE',  ( -3.949999999999999734, 4.837354856632044071E-16, 5.200000000000009948 ) ) ;
#267 = EDGE_CURVE ( 'NONE', #107, #49, #289, .T. ) ;
#268 = CARTESIAN_POINT ( 'NONE',  ( 0.000000000000000000, 0.000000000000000000, 5.200000000000009948 ) ) ;
#269 = DIRECTION ( 'NONE',  ( 1.000000000000000000, 0.000000000000000000, 0.000000000000000000 ) ) ;
#270 = DIRECTION ( 'NONE',  ( 1.000000000000000000, 0.000000000000000000, -0.000000000000000000 ) ) ;
#271 = EDGE_CURVE ( 'NONE', #286, #23, #225, .T. ) ;
#272 =( LENGTH_UNIT ( ) NAMED_UNIT ( * ) SI_UNIT ( .MILLI., .METRE. ) );
#273 = DIRECTION ( 'NONE',  ( 1.000000000000000000, 0.000000000000000000, 0.000000000000000000 ) ) ;
#274 = APPROVAL_ROLE ( '' ) ;
#275 = PERSON_AND_ORGANIZATION ( #305, #162 ) ;
#276 = CALENDAR_DATE ( 2022, 7, 7 ) ;
#277 = SECURITY_CLASSIFICATION_LEVEL ( 'unclassified' ) ;
#278 = TOROIDAL_SURFACE ( 'NONE', #297, 3.949999999999999734, 0.2000000000000000111 ) ;
#279 = CC_DESIGN_APPROVAL ( #238, ( #80 ) ) ;
#280 = EDGE_LOOP ( 'NONE', ( #44, #46, #70, #89 ) ) ;
#281 = APPROVAL_DATE_TIME ( #101, #307 ) ;
#282 = ORIENTED_EDGE ( 'NONE', *, *, #231, .F. ) ;
#283 = EDGE_LOOP ( 'NONE', ( #5, #209, #163, #108 ) ) ;
#284 = VECTOR ( 'NONE', #245, 1000.000000000000000 ) ;
#285 = CC_DESIGN_PERSON_AND_ORGANIZATION_ASSIGNMENT ( #275, #152, ( #214 ) ) ;
#286 = VERTEX_POINT ( 'NONE', #75 ) ;
#287 = VERTEX_POINT ( 'NONE', #168 ) ;
#288 = CARTESIAN_POINT ( 'NONE',  ( -6.000000000000000888, 0.000000000000000000, 0.000000000000000000 ) ) ;
#289 = CIRCLE ( 'NONE', #237, 3.750000000000000000 ) ;
#290 = LINE ( 'NONE', #221, #175 ) ;
#291 = CARTESIAN_POINT ( 'NONE',  ( 3.750000000000000000, 4.592425496802573972E-16, 255.0000000000000000 ) ) ;
#292 = DIRECTION ( 'NONE',  ( 1.000000000000000000, 0.000000000000000000, 0.000000000000000000 ) ) ;
#293 = AXIS2_PLACEMENT_3D ( 'NONE', #266, #159, #184 ) ;
#294 = FACE_OUTER_BOUND ( 'NONE', #18, .T. ) ;
#295 = FACE_OUTER_BOUND ( 'NONE', #137, .T. ) ;
#296 = CARTESIAN_POINT ( 'NONE',  ( 3.949999999999999734, 0.000000000000000000, 5.000000000000005329 ) ) ;
#297 = AXIS2_PLACEMENT_3D ( 'NONE', #53, #191, #123 ) ;
#298 = APPROVAL_DATE_TIME ( #253, #238 ) ;
#299 = PERSON_AND_ORGANIZATION_ROLE ( 'design_owner' ) ;
#300 = PRODUCT_DEFINITION_SHAPE ( 'NONE', 'NONE',  #173 ) ;
#301 = CARTESIAN_POINT ( 'NONE',  ( 0.000000000000000000, 0.000000000000000000, 0.000000000000000000 ) ) ;
#302 =( NAMED_UNIT ( * ) SI_UNIT ( $, .STERADIAN. ) SOLID_ANGLE_UNIT ( ) );
#303 = LOCAL_TIME ( 14, 35, 38.00000000000000000, #59 ) ;
#304 = CARTESIAN_POINT ( 'NONE',  ( 0.000000000000000000, 0.000000000000000000, 5.000000000000000000 ) ) ;
#305 = PERSON ( 'NEURÈENÝ', 'NEURÈENÝ', 'NEURÈENÝ', ('NEURÈENÝ'), ('NEURÈENÝ'), ('NEURÈENÝ') ) ;
#306 = ORIENTED_EDGE ( 'NONE', *, *, #14, .F. ) ;
#307 = APPROVAL ( #151, 'NEURÈENÝ' ) ;
ENDSEC;
END-ISO-10303-21;
