ISO-10303-21;
HEADER;
FILE_DESCRIPTION (( 'STEP AP203' ),
    '1' );
FILE_NAME ('1cfd.STEP',
    '2022-07-07T12:51:18',
    ( '' ),
    ( '' ),
    'SwSTEP 2.0',
    'SolidWorks 2019',
    '' );
FILE_SCHEMA (( 'CONFIG_CONTROL_DESIGN' ));
ENDSEC;

DATA;
#1 = PERSON ( 'NEURÈENÝ', 'NEURÈENÝ', 'NEURÈENÝ', ('NEURÈENÝ'), ('NEURÈENÝ'), ('NEURÈENÝ') ) ;
#2 = ADVANCED_FACE ( 'NONE', ( #211 ), #260, .T. ) ;
#3 = COORDINATED_UNIVERSAL_TIME_OFFSET ( 1, 0, .AHEAD. ) ;
#4 = AXIS2_PLACEMENT_3D ( 'NONE', #275, #87, #13 ) ;
#5 = ORIENTED_EDGE ( 'NONE', *, *, #252, .F. ) ;
#6 = EDGE_LOOP ( 'NONE', ( #56, #223, #165, #255 ) ) ;
#7 = DIRECTION ( 'NONE',  ( 1.000000000000000000, 0.000000000000000000, 0.000000000000000000 ) ) ;
#8 = EDGE_LOOP ( 'NONE', ( #258, #177, #139, #198 ) ) ;
#9 = DIRECTION ( 'NONE',  ( -1.000000000000000000, 0.000000000000000000, 0.000000000000000000 ) ) ;
#10 = PERSON_AND_ORGANIZATION_ROLE ( 'design_owner' ) ;
#11 = PRODUCT_DEFINITION_SHAPE ( 'NONE', 'NONE',  #215 ) ;
#12 = EDGE_CURVE ( 'NONE', #207, #29, #49, .T. ) ;
#13 = DIRECTION ( 'NONE',  ( 1.000000000000000000, 0.000000000000000000, 0.000000000000000000 ) ) ;
#14 = EDGE_LOOP ( 'NONE', ( #39, #141 ) ) ;
#15 = EDGE_LOOP ( 'NONE', ( #249, #247, #35, #138 ) ) ;
#16 = ORIENTED_EDGE ( 'NONE', *, *, #175, .F. ) ;
#17 = CARTESIAN_POINT ( 'NONE',  ( 0.000000000000000000, 0.000000000000000000, 163.0000000000000000 ) ) ;
#18 = AXIS2_PLACEMENT_3D ( 'NONE', #179, #253, #206 ) ;
#19 = DIRECTION ( 'NONE',  ( -1.000000000000000000, 1.224646799147353207E-16, 0.000000000000000000 ) ) ;
#20 = CARTESIAN_POINT ( 'NONE',  ( 0.000000000000000000, 0.000000000000000000, 3.000000000000000000 ) ) ;
#21 = EDGE_CURVE ( 'NONE', #163, #226, #227, .T. ) ;
#22 = PERSON_AND_ORGANIZATION ( #1, #185 ) ;
#23 = CARTESIAN_POINT ( 'NONE',  ( 0.000000000000000000, 0.000000000000000000, 0.000000000000000000 ) ) ;
#24 = CARTESIAN_POINT ( 'NONE',  ( -4.000000000000000000, 0.000000000000000000, 3.000000000000000000 ) ) ;
#25 = EDGE_CURVE ( 'NONE', #98, #207, #209, .T. ) ;
#26 = AXIS2_PLACEMENT_3D ( 'NONE', #142, #112, #235 ) ;
#27 = SECURITY_CLASSIFICATION ( '', '', #190 ) ;
#28 = FACE_OUTER_BOUND ( 'NONE', #36, .T. ) ;
#29 = VERTEX_POINT ( 'NONE', #137 ) ;
#30 = DIRECTION ( 'NONE',  ( 0.000000000000000000, 0.000000000000000000, 1.000000000000000000 ) ) ;
#31 = PERSON_AND_ORGANIZATION ( #1, #185 ) ;
#32 = TOROIDAL_SURFACE ( 'NONE', #203, 2.200000000000000178, 0.2000000000000000111 ) ;
#33 = ADVANCED_FACE ( 'NONE', ( #181, #274 ), #115, .T. ) ;
#34 = DIRECTION ( 'NONE',  ( 1.000000000000000000, 0.000000000000000000, 0.000000000000000000 ) ) ;
#35 = ORIENTED_EDGE ( 'NONE', *, *, #25, .T. ) ;
#36 = EDGE_LOOP ( 'NONE', ( #129, #290, #110, #278 ) ) ;
#37 = EDGE_CURVE ( 'NONE', #205, #277, #237, .T. ) ;
#38 = LOCAL_TIME ( 14, 51, 18.00000000000000000, #130 ) ;
#39 = ORIENTED_EDGE ( 'NONE', *, *, #195, .T. ) ;
#40 = ORIENTED_EDGE ( 'NONE', *, *, #111, .F. ) ;
#41 = DIRECTION ( 'NONE',  ( 1.000000000000000000, 0.000000000000000000, 0.000000000000000000 ) ) ;
#42 = AXIS2_PLACEMENT_3D ( 'NONE', #156, #30, #7 ) ;
#43 = CARTESIAN_POINT ( 'NONE',  ( -2.200000000000000178, 2.694222958124177006E-16, 3.000000000000004441 ) ) ;
#44 = APPROVAL_ROLE ( '' ) ;
#45 = PLANE ( 'NONE',  #197 ) ;
#46 = APPROVAL_DATE_TIME ( #196, #189 ) ;
#47 = DIRECTION ( 'NONE',  ( -0.000000000000000000, -0.000000000000000000, -1.000000000000000000 ) ) ;
#48 = EDGE_CURVE ( 'NONE', #98, #160, #208, .T. ) ;
#49 = CIRCLE ( 'NONE', #99, 2.000000000000000000 ) ;
#50 = CALENDAR_DATE ( 2022, 7, 7 ) ;
#51 = CC_DESIGN_PERSON_AND_ORGANIZATION_ASSIGNMENT ( #305, #171, ( #27 ) ) ;
#52 = EDGE_LOOP ( 'NONE', ( #86, #164 ) ) ;
#53 = CARTESIAN_POINT ( 'NONE',  ( 2.200000000000000178, 0.000000000000000000, 3.000000000000004441 ) ) ;
#54 = VECTOR ( 'NONE', #276, 1000.000000000000000 ) ;
#55 = APPROVAL_PERSON_ORGANIZATION ( #229, #122, #201 ) ;
#56 = ORIENTED_EDGE ( 'NONE', *, *, #149, .F. ) ;
#57 = APPLICATION_PROTOCOL_DEFINITION ( 'international standard', 'config_control_design', 1994, #301 ) ;
#58 = MECHANICAL_CONTEXT ( 'NONE', #301, 'mechanical' ) ;
#59 = ADVANCED_FACE ( 'NONE', ( #183 ), #32, .F. ) ;
#60 = DIRECTION ( 'NONE',  ( 0.000000000000000000, 0.000000000000000000, 1.000000000000000000 ) ) ;
#61 = CC_DESIGN_SECURITY_CLASSIFICATION ( #27, ( #85 ) ) ;
#62 = ORIENTED_EDGE ( 'NONE', *, *, #233, .F. ) ;
#63 = ADVANCED_FACE ( 'NONE', ( #212 ), #236, .T. ) ;
#64 = EDGE_LOOP ( 'NONE', ( #16, #232, #291, #90 ) ) ;
#65 = ORIENTED_EDGE ( 'NONE', *, *, #132, .F. ) ;
#66 = VERTEX_POINT ( 'NONE', #169 ) ;
#67 = DIRECTION ( 'NONE',  ( 0.000000000000000000, 0.000000000000000000, 1.000000000000000000 ) ) ;
#68 = EDGE_CURVE ( 'NONE', #29, #226, #84, .T. ) ;
#69 = CYLINDRICAL_SURFACE ( 'NONE', #159, 4.000000000000000000 ) ;
#70 = DATE_AND_TIME ( #287, #283 ) ;
#71 = DIRECTION ( 'NONE',  ( -1.000000000000000000, 0.000000000000000000, 0.000000000000000000 ) ) ;
#72 = APPROVAL_DATE_TIME ( #269, #73 ) ;
#73 = APPROVAL ( #95, 'NEURÈENÝ' ) ;
#74 = CARTESIAN_POINT ( 'NONE',  ( -2.000000000000000000, 0.000000000000000000, 163.0000000000000000 ) ) ;
#75 = PERSON_AND_ORGANIZATION ( #1, #185 ) ;
#76 = AXIS2_PLACEMENT_3D ( 'NONE', #303, #91, #127 ) ;
#77 = PERSON_AND_ORGANIZATION ( #1, #185 ) ;
#78 = DATE_AND_TIME ( #123, #107 ) ;
#79 = ADVANCED_FACE ( 'NONE', ( #285 ), #268, .F. ) ;
#80 = CARTESIAN_POINT ( 'NONE',  ( 0.000000000000000000, 0.000000000000000000, 3.000000000000000000 ) ) ;
#81 = AXIS2_PLACEMENT_3D ( 'NONE', #170, #242, #19 ) ;
#82 = DIRECTION ( 'NONE',  ( -0.000000000000000000, -0.000000000000000000, -1.000000000000000000 ) ) ;
#83 = DIRECTION ( 'NONE',  ( 0.000000000000000000, 0.000000000000000000, 1.000000000000000000 ) ) ;
#84 = CIRCLE ( 'NONE', #246, 0.2000000000000000944 ) ;
#85 = PRODUCT_DEFINITION_FORMATION_WITH_SPECIFIED_SOURCE ( 'LIBOVOLNÝ', '', #157, .NOT_KNOWN. ) ;
#86 = ORIENTED_EDGE ( 'NONE', *, *, #238, .T. ) ;
#87 = DIRECTION ( 'NONE',  ( 0.000000000000000000, 0.000000000000000000, 1.000000000000000000 ) ) ;
#88 = DIRECTION ( 'NONE',  ( -1.000000000000000000, 0.000000000000000000, 0.000000000000000000 ) ) ;
#89 = AXIS2_PLACEMENT_3D ( 'NONE', #184, #261, #210 ) ;
#90 = ORIENTED_EDGE ( 'NONE', *, *, #25, .F. ) ;
#91 = DIRECTION ( 'NONE',  ( 0.000000000000000000, 0.000000000000000000, 1.000000000000000000 ) ) ;
#92 = DIRECTION ( 'NONE',  ( 1.000000000000000000, 0.000000000000000000, 0.000000000000000000 ) ) ;
#93 = ADVANCED_FACE ( 'NONE', ( #193 ), #45, .F. ) ;
#94 = CIRCLE ( 'NONE', #140, 2.000000000000000000 ) ;
#95 = APPROVAL_STATUS ( 'not_yet_approved' ) ;
#96 = DIRECTION ( 'NONE',  ( 0.000000000000000000, 0.000000000000000000, -1.000000000000000000 ) ) ;
#97 = SHAPE_DEFINITION_REPRESENTATION ( #11, #135 ) ;
#98 = VERTEX_POINT ( 'NONE', #74 ) ;
#99 = AXIS2_PLACEMENT_3D ( 'NONE', #300, #83, #34 ) ;
#100 = APPROVAL_DATE_TIME ( #286, #122 ) ;
#101 = CC_DESIGN_PERSON_AND_ORGANIZATION_ASSIGNMENT ( #192, #174, ( #85 ) ) ;
#102 = ORIENTED_EDGE ( 'NONE', *, *, #68, .T. ) ;
#103 = APPROVAL_STATUS ( 'not_yet_approved' ) ;
#104 = VERTEX_POINT ( 'NONE', #266 ) ;
#105 = DIRECTION ( 'NONE',  ( 0.000000000000000000, 0.000000000000000000, 1.000000000000000000 ) ) ;
#106 = CARTESIAN_POINT ( 'NONE',  ( 0.000000000000000000, 0.000000000000000000, 3.000000000000000000 ) ) ;
#107 = LOCAL_TIME ( 14, 51, 18.00000000000000000, #173 ) ;
#108 = ORIENTED_EDGE ( 'NONE', *, *, #175, .T. ) ;
#109 = DIRECTION ( 'NONE',  ( 1.000000000000000000, 0.000000000000000000, 0.000000000000000000 ) ) ;
#110 = ORIENTED_EDGE ( 'NONE', *, *, #128, .T. ) ;
#111 = EDGE_CURVE ( 'NONE', #207, #163, #219, .T. ) ;
#112 = DIRECTION ( 'NONE',  ( -0.000000000000000000, -0.000000000000000000, -1.000000000000000000 ) ) ;
#113 = CLOSED_SHELL ( 'NONE', ( #79, #2, #161, #270, #33, #93, #63, #155, #59 ) ) ;
#114 = APPROVAL_PERSON_ORGANIZATION ( #77, #189, #146 ) ;
#115 = PLANE ( 'NONE',  #89 ) ;
#116 = CARTESIAN_POINT ( 'NONE',  ( 0.000000000000000000, 0.000000000000000000, 3.200000000000008171 ) ) ;
#117 = CC_DESIGN_PERSON_AND_ORGANIZATION_ASSIGNMENT ( #75, #221, ( #215 ) ) ;
#118 = MANIFOLD_SOLID_BREP ( 'Zaoblit1', #113 ) ;
#119 = AXIS2_PLACEMENT_3D ( 'NONE', #20, #216, #109 ) ;
#120 = PLANE ( 'NONE',  #76 ) ;
#121 = DIRECTION ( 'NONE',  ( 0.000000000000000000, 0.000000000000000000, 1.000000000000000000 ) ) ;
#122 = APPROVAL ( #103, 'NEURÈENÝ' ) ;
#123 = CALENDAR_DATE ( 2022, 7, 7 ) ;
#124 = DIRECTION ( 'NONE',  ( 1.000000000000000000, 0.000000000000000000, 0.000000000000000000 ) ) ;
#125 = CIRCLE ( 'NONE', #307, 4.000000000000000000 ) ;
#126 = APPROVAL_STATUS ( 'not_yet_approved' ) ;
#127 = DIRECTION ( 'NONE',  ( 1.000000000000000000, 0.000000000000000000, -0.000000000000000000 ) ) ;
#128 = EDGE_CURVE ( 'NONE', #104, #66, #166, .T. ) ;
#129 = ORIENTED_EDGE ( 'NONE', *, *, #37, .F. ) ;
#130 = COORDINATED_UNIVERSAL_TIME_OFFSET ( 1, 0, .AHEAD. ) ;
#131 = CARTESIAN_POINT ( 'NONE',  ( 4.000000000000000000, 4.898587196589412829E-16, 0.000000000000000000 ) ) ;
#132 = EDGE_CURVE ( 'NONE', #29, #207, #94, .T. ) ;
#133 =( NAMED_UNIT ( * ) PLANE_ANGLE_UNIT ( ) SI_UNIT ( $, .RADIAN. ) );
#134 = APPLICATION_PROTOCOL_DEFINITION ( 'international standard', 'config_control_design', 1994, #187 ) ;
#135 = ADVANCED_BREP_SHAPE_REPRESENTATION ( '1cfd', ( #118, #42 ), #204 ) ;
#136 = CIRCLE ( 'NONE', #213, 4.000000000000000000 ) ;
#137 = CARTESIAN_POINT ( 'NONE',  ( 2.000000000000000000, 2.449293598294706414E-16, 3.200000000000008171 ) ) ;
#138 = ORIENTED_EDGE ( 'NONE', *, *, #12, .T. ) ;
#139 = ORIENTED_EDGE ( 'NONE', *, *, #195, .F. ) ;
#140 = AXIS2_PLACEMENT_3D ( 'NONE', #191, #263, #41 ) ;
#141 = ORIENTED_EDGE ( 'NONE', *, *, #21, .T. ) ;
#142 = CARTESIAN_POINT ( 'NONE',  ( 0.000000000000000000, 0.000000000000000000, 3.000000000000000000 ) ) ;
#143 = DIRECTION ( 'NONE',  ( -1.000000000000000000, 0.000000000000000000, 0.000000000000000000 ) ) ;
#144 = DIRECTION ( 'NONE',  ( 0.000000000000000000, 0.000000000000000000, 1.000000000000000000 ) ) ;
#145 = DIRECTION ( 'NONE',  ( 1.000000000000000000, 0.000000000000000000, -0.000000000000000000 ) ) ;
#146 = APPROVAL_ROLE ( '' ) ;
#147 = DIRECTION ( 'NONE',  ( 0.000000000000000000, 0.000000000000000000, 1.000000000000000000 ) ) ;
#148 = CIRCLE ( 'NONE', #119, 2.200000000000000178 ) ;
#149 = EDGE_CURVE ( 'NONE', #205, #104, #136, .T. ) ;
#150 = PERSON_AND_ORGANIZATION ( #1, #185 ) ;
#151 = COORDINATED_UNIVERSAL_TIME_OFFSET ( 1, 0, .AHEAD. ) ;
#152 = ORIENTED_EDGE ( 'NONE', *, *, #21, .F. ) ;
#153 = VECTOR ( 'NONE', #182, 1000.000000000000000 ) ;
#154 = CARTESIAN_POINT ( 'NONE',  ( 0.000000000000000000, 0.000000000000000000, 0.000000000000000000 ) ) ;
#155 = ADVANCED_FACE ( 'NONE', ( #280 ), #120, .T. ) ;
#156 = CARTESIAN_POINT ( 'NONE',  ( 0.000000000000000000, 0.000000000000000000, 0.000000000000000000 ) ) ;
#157 = PRODUCT ( '1cfd', '1cfd', '', ( #58 ) ) ;
#158 = CARTESIAN_POINT ( 'NONE',  ( 4.000000000000000000, 4.898587196589412829E-16, 3.000000000000000000 ) ) ;
#159 = AXIS2_PLACEMENT_3D ( 'NONE', #167, #264, #71 ) ;
#160 = VERTEX_POINT ( 'NONE', #188 ) ;
#161 = ADVANCED_FACE ( 'NONE', ( #306 ), #69, .T. ) ;
#162 = EDGE_LOOP ( 'NONE', ( #40, #65, #102, #152 ) ) ;
#163 = VERTEX_POINT ( 'NONE', #43 ) ;
#164 = ORIENTED_EDGE ( 'NONE', *, *, #149, .T. ) ;
#165 = ORIENTED_EDGE ( 'NONE', *, *, #252, .T. ) ;
#166 = LINE ( 'NONE', #24, #240 ) ;
#167 = CARTESIAN_POINT ( 'NONE',  ( 0.000000000000000000, 0.000000000000000000, 3.000000000000000000 ) ) ;
#168 = CC_DESIGN_APPROVAL ( #122, ( #215 ) ) ;
#169 = CARTESIAN_POINT ( 'NONE',  ( -4.000000000000000000, 0.000000000000000000, 0.000000000000000000 ) ) ;
#170 = CARTESIAN_POINT ( 'NONE',  ( -2.200000000000000178, 2.694222958124177006E-16, 3.200000000000008171 ) ) ;
#171 = PERSON_AND_ORGANIZATION_ROLE ( 'classification_officer' ) ;
#172 = EDGE_CURVE ( 'NONE', #160, #29, #220, .T. ) ;
#173 = COORDINATED_UNIVERSAL_TIME_OFFSET ( 1, 0, .AHEAD. ) ;
#174 = PERSON_AND_ORGANIZATION_ROLE ( 'design_supplier' ) ;
#175 = EDGE_CURVE ( 'NONE', #160, #98, #254, .T. ) ;
#176 = DIRECTION ( 'NONE',  ( 1.000000000000000000, 0.000000000000000000, 0.000000000000000000 ) ) ;
#177 = ORIENTED_EDGE ( 'NONE', *, *, #111, .T. ) ;
#178 = CC_DESIGN_APPROVAL ( #73, ( #27 ) ) ;
#179 = CARTESIAN_POINT ( 'NONE',  ( 0.000000000000000000, 0.000000000000000000, 0.000000000000000000 ) ) ;
#180 = LOCAL_TIME ( 14, 51, 18.00000000000000000, #284 ) ;
#181 = FACE_BOUND ( 'NONE', #14, .T. ) ;
#182 = DIRECTION ( 'NONE',  ( -0.000000000000000000, -0.000000000000000000, -1.000000000000000000 ) ) ;
#183 = FACE_OUTER_BOUND ( 'NONE', #162, .T. ) ;
#184 = CARTESIAN_POINT ( 'NONE',  ( 0.000000000000000000, 0.000000000000000000, 3.000000000000000000 ) ) ;
#185 = ORGANIZATION ( 'NEURÈENÝ', 'NEURÈENÝ', '' ) ;
#186 = ORIENTED_EDGE ( 'NONE', *, *, #48, .T. ) ;
#187 = APPLICATION_CONTEXT ( 'configuration controlled 3d designs of mechanical parts and assemblies' ) ;
#188 = CARTESIAN_POINT ( 'NONE',  ( 2.000000000000000000, 2.449293598294706414E-16, 163.0000000000000000 ) ) ;
#189 = APPROVAL ( #126, 'NEURÈENÝ' ) ;
#190 = SECURITY_CLASSIFICATION_LEVEL ( 'unclassified' ) ;
#191 = CARTESIAN_POINT ( 'NONE',  ( 0.000000000000000000, 0.000000000000000000, 3.200000000000008171 ) ) ;
#192 = PERSON_AND_ORGANIZATION ( #1, #185 ) ;
#193 = FACE_OUTER_BOUND ( 'NONE', #200, .T. ) ;
#194 = CALENDAR_DATE ( 2022, 7, 7 ) ;
#195 = EDGE_CURVE ( 'NONE', #226, #163, #148, .T. ) ;
#196 = DATE_AND_TIME ( #50, #294 ) ;
#197 = AXIS2_PLACEMENT_3D ( 'NONE', #23, #147, #145 ) ;
#198 = ORIENTED_EDGE ( 'NONE', *, *, #68, .F. ) ;
#199 = DATE_TIME_ROLE ( 'creation_date' ) ;
#200 = EDGE_LOOP ( 'NONE', ( #62, #5 ) ) ;
#201 = APPROVAL_ROLE ( '' ) ;
#202 =( NAMED_UNIT ( * ) SI_UNIT ( $, .STERADIAN. ) SOLID_ANGLE_UNIT ( ) );
#203 = AXIS2_PLACEMENT_3D ( 'NONE', #116, #60, #257 ) ;
#204 =( GEOMETRIC_REPRESENTATION_CONTEXT ( 3 ) GLOBAL_UNCERTAINTY_ASSIGNED_CONTEXT ( ( #230 ) ) GLOBAL_UNIT_ASSIGNED_CONTEXT ( ( #292, #133, #202 ) ) REPRESENTATION_CONTEXT ( 'NONE', 'WORKASPACE' ) );
#205 = VERTEX_POINT ( 'NONE', #158 ) ;
#206 = DIRECTION ( 'NONE',  ( 1.000000000000000000, 0.000000000000000000, 0.000000000000000000 ) ) ;
#207 = VERTEX_POINT ( 'NONE', #225 ) ;
#208 = CIRCLE ( 'NONE', #4, 2.000000000000000000 ) ;
#209 = LINE ( 'NONE', #298, #153 ) ;
#210 = DIRECTION ( 'NONE',  ( 1.000000000000000000, 0.000000000000000000, -0.000000000000000000 ) ) ;
#211 = FACE_OUTER_BOUND ( 'NONE', #64, .T. ) ;
#212 = FACE_OUTER_BOUND ( 'NONE', #15, .T. ) ;
#213 = AXIS2_PLACEMENT_3D ( 'NONE', #281, #121, #124 ) ;
#214 = APPROVAL_PERSON_ORGANIZATION ( #150, #73, #44 ) ;
#215 = PRODUCT_DEFINITION ( 'NEZNÁMÝ', '', #85, #251 ) ;
#216 = DIRECTION ( 'NONE',  ( -0.000000000000000000, -0.000000000000000000, -1.000000000000000000 ) ) ;
#217 = DATE_TIME_ROLE ( 'classification_date' ) ;
#218 = CARTESIAN_POINT ( 'NONE',  ( 2.200000000000000178, 0.000000000000000000, 3.200000000000008171 ) ) ;
#219 = CIRCLE ( 'NONE', #81, 0.2000000000000000944 ) ;
#220 = LINE ( 'NONE', #267, #259 ) ;
#221 = PERSON_AND_ORGANIZATION_ROLE ( 'creator' ) ;
#222 = AXIS2_PLACEMENT_3D ( 'NONE', #17, #296, #88 ) ;
#223 = ORIENTED_EDGE ( 'NONE', *, *, #37, .T. ) ;
#224 = EDGE_LOOP ( 'NONE', ( #186, #108 ) ) ;
#225 = CARTESIAN_POINT ( 'NONE',  ( -2.000000000000000000, 0.000000000000000000, 3.200000000000008171 ) ) ;
#226 = VERTEX_POINT ( 'NONE', #53 ) ;
#227 = CIRCLE ( 'NONE', #26, 2.200000000000000178 ) ;
#228 = CC_DESIGN_APPROVAL ( #189, ( #85 ) ) ;
#229 = PERSON_AND_ORGANIZATION ( #1, #185 ) ;
#230 = UNCERTAINTY_MEASURE_WITH_UNIT (LENGTH_MEASURE( 1.000000000000000082E-05 ), #292, 'distance_accuracy_value', 'NONE');
#231 = DIRECTION ( 'NONE',  ( -0.000000000000000000, -0.000000000000000000, -1.000000000000000000 ) ) ;
#232 = ORIENTED_EDGE ( 'NONE', *, *, #172, .T. ) ;
#233 = EDGE_CURVE ( 'NONE', #66, #277, #125, .T. ) ;
#234 = AXIS2_PLACEMENT_3D ( 'NONE', #302, #231, #143 ) ;
#235 = DIRECTION ( 'NONE',  ( 1.000000000000000000, 0.000000000000000000, 0.000000000000000000 ) ) ;
#236 = CYLINDRICAL_SURFACE ( 'NONE', #234, 2.000000000000000000 ) ;
#237 = LINE ( 'NONE', #299, #54 ) ;
#238 = EDGE_CURVE ( 'NONE', #104, #205, #273, .T. ) ;
#239 = CARTESIAN_POINT ( 'NONE',  ( 0.000000000000000000, 0.000000000000000000, 3.200000000000008171 ) ) ;
#240 = VECTOR ( 'NONE', #245, 1000.000000000000000 ) ;
#241 = DIRECTION ( 'NONE',  ( 1.000000000000000000, 0.000000000000000000, 0.000000000000000000 ) ) ;
#242 = DIRECTION ( 'NONE',  ( 1.224646799147353207E-16, 1.000000000000000000, -0.000000000000000000 ) ) ;
#243 = PRODUCT_RELATED_PRODUCT_CATEGORY ( 'detail', '', ( #157 ) ) ;
#244 = PERSON_AND_ORGANIZATION_ROLE ( 'creator' ) ;
#245 = DIRECTION ( 'NONE',  ( -0.000000000000000000, -0.000000000000000000, -1.000000000000000000 ) ) ;
#246 = AXIS2_PLACEMENT_3D ( 'NONE', #218, #304, #96 ) ;
#247 = ORIENTED_EDGE ( 'NONE', *, *, #48, .F. ) ;
#248 = DIRECTION ( 'NONE',  ( 0.000000000000000000, 0.000000000000000000, 1.000000000000000000 ) ) ;
#249 = ORIENTED_EDGE ( 'NONE', *, *, #172, .F. ) ;
#250 = CYLINDRICAL_SURFACE ( 'NONE', #265, 4.000000000000000000 ) ;
#251 = DESIGN_CONTEXT ( 'detailed design', #187, 'design' ) ;
#252 = EDGE_CURVE ( 'NONE', #277, #66, #288, .T. ) ;
#253 = DIRECTION ( 'NONE',  ( 0.000000000000000000, 0.000000000000000000, 1.000000000000000000 ) ) ;
#254 = CIRCLE ( 'NONE', #272, 2.000000000000000000 ) ;
#255 = ORIENTED_EDGE ( 'NONE', *, *, #128, .F. ) ;
#256 = CC_DESIGN_PERSON_AND_ORGANIZATION_ASSIGNMENT ( #22, #244, ( #85 ) ) ;
#257 = DIRECTION ( 'NONE',  ( 1.000000000000000000, 0.000000000000000000, 0.000000000000000000 ) ) ;
#258 = ORIENTED_EDGE ( 'NONE', *, *, #12, .F. ) ;
#259 = VECTOR ( 'NONE', #47, 1000.000000000000000 ) ;
#260 = CYLINDRICAL_SURFACE ( 'NONE', #222, 2.000000000000000000 ) ;
#261 = DIRECTION ( 'NONE',  ( 0.000000000000000000, 0.000000000000000000, 1.000000000000000000 ) ) ;
#262 = CC_DESIGN_DATE_AND_TIME_ASSIGNMENT ( #70, #199, ( #215 ) ) ;
#263 = DIRECTION ( 'NONE',  ( 0.000000000000000000, 0.000000000000000000, 1.000000000000000000 ) ) ;
#264 = DIRECTION ( 'NONE',  ( -0.000000000000000000, -0.000000000000000000, -1.000000000000000000 ) ) ;
#265 = AXIS2_PLACEMENT_3D ( 'NONE', #80, #82, #9 ) ;
#266 = CARTESIAN_POINT ( 'NONE',  ( -4.000000000000000000, 0.000000000000000000, 3.000000000000000000 ) ) ;
#267 = CARTESIAN_POINT ( 'NONE',  ( 2.000000000000000000, 2.449293598294706414E-16, 163.0000000000000000 ) ) ;
#268 = TOROIDAL_SURFACE ( 'NONE', #282, 2.200000000000000178, 0.2000000000000000111 ) ;
#269 = DATE_AND_TIME ( #271, #180 ) ;
#270 = ADVANCED_FACE ( 'NONE', ( #28 ), #250, .T. ) ;
#271 = CALENDAR_DATE ( 2022, 7, 7 ) ;
#272 = AXIS2_PLACEMENT_3D ( 'NONE', #279, #144, #241 ) ;
#273 = CIRCLE ( 'NONE', #293, 4.000000000000000000 ) ;
#274 = FACE_OUTER_BOUND ( 'NONE', #52, .T. ) ;
#275 = CARTESIAN_POINT ( 'NONE',  ( 0.000000000000000000, 0.000000000000000000, 163.0000000000000000 ) ) ;
#276 = DIRECTION ( 'NONE',  ( -0.000000000000000000, -0.000000000000000000, -1.000000000000000000 ) ) ;
#277 = VERTEX_POINT ( 'NONE', #131 ) ;
#278 = ORIENTED_EDGE ( 'NONE', *, *, #233, .T. ) ;
#279 = CARTESIAN_POINT ( 'NONE',  ( 0.000000000000000000, 0.000000000000000000, 163.0000000000000000 ) ) ;
#280 = FACE_OUTER_BOUND ( 'NONE', #224, .T. ) ;
#281 = CARTESIAN_POINT ( 'NONE',  ( 0.000000000000000000, 0.000000000000000000, 3.000000000000000000 ) ) ;
#282 = AXIS2_PLACEMENT_3D ( 'NONE', #239, #67, #92 ) ;
#283 = LOCAL_TIME ( 14, 51, 18.00000000000000000, #151 ) ;
#284 = COORDINATED_UNIVERSAL_TIME_OFFSET ( 1, 0, .AHEAD. ) ;
#285 = FACE_OUTER_BOUND ( 'NONE', #8, .T. ) ;
#286 = DATE_AND_TIME ( #194, #38 ) ;
#287 = CALENDAR_DATE ( 2022, 7, 7 ) ;
#288 = CIRCLE ( 'NONE', #18, 4.000000000000000000 ) ;
#289 = CC_DESIGN_DATE_AND_TIME_ASSIGNMENT ( #78, #217, ( #27 ) ) ;
#290 = ORIENTED_EDGE ( 'NONE', *, *, #238, .F. ) ;
#291 = ORIENTED_EDGE ( 'NONE', *, *, #132, .T. ) ;
#292 =( LENGTH_UNIT ( ) NAMED_UNIT ( * ) SI_UNIT ( .MILLI., .METRE. ) );
#293 = AXIS2_PLACEMENT_3D ( 'NONE', #106, #105, #176 ) ;
#294 = LOCAL_TIME ( 14, 51, 18.00000000000000000, #3 ) ;
#295 = DIRECTION ( 'NONE',  ( 1.000000000000000000, 0.000000000000000000, 0.000000000000000000 ) ) ;
#296 = DIRECTION ( 'NONE',  ( -0.000000000000000000, -0.000000000000000000, -1.000000000000000000 ) ) ;
#297 = CC_DESIGN_PERSON_AND_ORGANIZATION_ASSIGNMENT ( #31, #10, ( #157 ) ) ;
#298 = CARTESIAN_POINT ( 'NONE',  ( -2.000000000000000000, 0.000000000000000000, 163.0000000000000000 ) ) ;
#299 = CARTESIAN_POINT ( 'NONE',  ( 4.000000000000000000, 4.898587196589412829E-16, 3.000000000000000000 ) ) ;
#300 = CARTESIAN_POINT ( 'NONE',  ( 0.000000000000000000, 0.000000000000000000, 3.200000000000008171 ) ) ;
#301 = APPLICATION_CONTEXT ( 'configuration controlled 3d designs of mechanical parts and assemblies' ) ;
#302 = CARTESIAN_POINT ( 'NONE',  ( 0.000000000000000000, 0.000000000000000000, 163.0000000000000000 ) ) ;
#303 = CARTESIAN_POINT ( 'NONE',  ( 0.000000000000000000, 0.000000000000000000, 163.0000000000000000 ) ) ;
#304 = DIRECTION ( 'NONE',  ( 0.000000000000000000, -1.000000000000000000, 0.000000000000000000 ) ) ;
#305 = PERSON_AND_ORGANIZATION ( #1, #185 ) ;
#306 = FACE_OUTER_BOUND ( 'NONE', #6, .T. ) ;
#307 = AXIS2_PLACEMENT_3D ( 'NONE', #154, #248, #295 ) ;
ENDSEC;
END-ISO-10303-21;
