ISO-10303-21;
HEADER;
FILE_DESCRIPTION (( 'STEP AP203' ),
    '1' );
FILE_NAME ('ac28.STEP',
    '2022-07-07T12:55:10',
    ( '' ),
    ( '' ),
    'SwSTEP 2.0',
    'SolidWorks 2019',
    '' );
FILE_SCHEMA (( 'CONFIG_CONTROL_DESIGN' ));
ENDSEC;

DATA;
#1 = EDGE_LOOP ( 'NONE', ( #245, #68, #286, #92 ) ) ;
#2 = CARTESIAN_POINT ( 'NONE',  ( -3.000000000000000444, 0.000000000000000000, 0.000000000000000000 ) ) ;
#3 = EDGE_LOOP ( 'NONE', ( #138, #188, #15, #31 ) ) ;
#4 = DIRECTION ( 'NONE',  ( 0.000000000000000000, 0.000000000000000000, -1.000000000000000000 ) ) ;
#5 = EDGE_CURVE ( 'NONE', #233, #40, #24, .T. ) ;
#6 = PERSON ( 'NEURÈENÝ', 'NEURÈENÝ', 'NEURÈENÝ', ('NEURÈENÝ'), ('NEURÈENÝ'), ('NEURÈENÝ') ) ;
#7 = LINE ( 'NONE', #42, #53 ) ;
#8 = CARTESIAN_POINT ( 'NONE',  ( 0.000000000000000000, 0.000000000000000000, 3.200000000000008171 ) ) ;
#9 = EDGE_LOOP ( 'NONE', ( #198, #59 ) ) ;
#10 = CYLINDRICAL_SURFACE ( 'NONE', #205, 1.500000000000000222 ) ;
#11 = DIRECTION ( 'NONE',  ( -0.000000000000000000, -0.000000000000000000, -1.000000000000000000 ) ) ;
#12 = COORDINATED_UNIVERSAL_TIME_OFFSET ( 1, 0, .AHEAD. ) ;
#13 = AXIS2_PLACEMENT_3D ( 'NONE', #190, #75, #171 ) ;
#14 = VECTOR ( 'NONE', #139, 1000.000000000000000 ) ;
#15 = ORIENTED_EDGE ( 'NONE', *, *, #151, .T. ) ;
#16 = APPROVAL ( #173, 'NEURÈENÝ' ) ;
#17 = PLANE ( 'NONE',  #194 ) ;
#18 = DIRECTION ( 'NONE',  ( -1.000000000000000000, 0.000000000000000000, 0.000000000000000000 ) ) ;
#19 = DIRECTION ( 'NONE',  ( -0.000000000000000000, -0.000000000000000000, -1.000000000000000000 ) ) ;
#20 = DIRECTION ( 'NONE',  ( 1.000000000000000000, 0.000000000000000000, -0.000000000000000000 ) ) ;
#21 = DATE_AND_TIME ( #302, #76 ) ;
#22 = PERSON_AND_ORGANIZATION_ROLE ( 'creator' ) ;
#23 = EDGE_CURVE ( 'NONE', #63, #178, #276, .T. ) ;
#24 = CIRCLE ( 'NONE', #115, 3.000000000000000444 ) ;
#25 = SHAPE_DEFINITION_REPRESENTATION ( #285, #27 ) ;
#26 = EDGE_CURVE ( 'NONE', #221, #219, #264, .T. ) ;
#27 = ADVANCED_BREP_SHAPE_REPRESENTATION ( 'ac28', ( #305, #30 ), #99 ) ;
#28 = ADVANCED_FACE ( 'NONE', ( #208 ), #298, .T. ) ;
#29 = EDGE_CURVE ( 'NONE', #178, #165, #236, .T. ) ;
#30 = AXIS2_PLACEMENT_3D ( 'NONE', #145, #272, #252 ) ;
#31 = ORIENTED_EDGE ( 'NONE', *, *, #306, .F. ) ;
#32 = CIRCLE ( 'NONE', #80, 3.000000000000000444 ) ;
#33 = DIRECTION ( 'NONE',  ( 1.000000000000000000, 0.000000000000000000, 0.000000000000000000 ) ) ;
#34 = ORIENTED_EDGE ( 'NONE', *, *, #265, .F. ) ;
#35 = DIRECTION ( 'NONE',  ( 0.000000000000000000, 0.000000000000000000, 1.000000000000000000 ) ) ;
#36 = AXIS2_PLACEMENT_3D ( 'NONE', #163, #211, #20 ) ;
#37 = MECHANICAL_CONTEXT ( 'NONE', #125, 'mechanical' ) ;
#38 = FACE_OUTER_BOUND ( 'NONE', #158, .T. ) ;
#39 = CARTESIAN_POINT ( 'NONE',  ( 0.000000000000000000, 0.000000000000000000, 0.000000000000000000 ) ) ;
#40 = VERTEX_POINT ( 'NONE', #299 ) ;
#41 = DIRECTION ( 'NONE',  ( 1.000000000000000000, 0.000000000000000000, 0.000000000000000000 ) ) ;
#42 = CARTESIAN_POINT ( 'NONE',  ( 3.000000000000000444, 3.673940397442060361E-16, 3.000000000000000000 ) ) ;
#43 = DATE_AND_TIME ( #120, #290 ) ;
#44 = CARTESIAN_POINT ( 'NONE',  ( 1.500000000000000222, 1.836970198721030181E-16, 203.0000000000000000 ) ) ;
#45 = ORIENTED_EDGE ( 'NONE', *, *, #106, .T. ) ;
#46 = DIRECTION ( 'NONE',  ( -1.000000000000000000, 0.000000000000000000, 0.000000000000000000 ) ) ;
#47 = CARTESIAN_POINT ( 'NONE',  ( 0.000000000000000000, 0.000000000000000000, 3.000000000000000000 ) ) ;
#48 = DATE_TIME_ROLE ( 'creation_date' ) ;
#49 = APPLICATION_PROTOCOL_DEFINITION ( 'international standard', 'config_control_design', 1994, #125 ) ;
#50 = PERSON_AND_ORGANIZATION ( #6, #127 ) ;
#51 = AXIS2_PLACEMENT_3D ( 'NONE', #159, #35, #133 ) ;
#52 = CLOSED_SHELL ( 'NONE', ( #175, #28, #222, #270, #126, #243, #56, #287, #228 ) ) ;
#53 = VECTOR ( 'NONE', #110, 1000.000000000000000 ) ;
#54 = AXIS2_PLACEMENT_3D ( 'NONE', #168, #142, #227 ) ;
#55 = EDGE_CURVE ( 'NONE', #117, #153, #225, .T. ) ;
#56 = ADVANCED_FACE ( 'NONE', ( #203 ), #10, .T. ) ;
#57 = APPROVAL ( #300, 'NEURÈENÝ' ) ;
#58 = DIRECTION ( 'NONE',  ( 0.000000000000000000, 0.000000000000000000, 1.000000000000000000 ) ) ;
#59 = ORIENTED_EDGE ( 'NONE', *, *, #306, .T. ) ;
#60 = APPROVAL_PERSON_ORGANIZATION ( #113, #57, #95 ) ;
#61 = CIRCLE ( 'NONE', #51, 1.500000000000000222 ) ;
#62 = DIRECTION ( 'NONE',  ( 1.000000000000000000, 0.000000000000000000, 0.000000000000000000 ) ) ;
#63 = VERTEX_POINT ( 'NONE', #93 ) ;
#64 = AXIS2_PLACEMENT_3D ( 'NONE', #181, #266, #33 ) ;
#65 = DIRECTION ( 'NONE',  ( -1.000000000000000000, 0.000000000000000000, 0.000000000000000000 ) ) ;
#66 = EDGE_CURVE ( 'NONE', #219, #221, #32, .T. ) ;
#67 = DIRECTION ( 'NONE',  ( -0.000000000000000000, -0.000000000000000000, -1.000000000000000000 ) ) ;
#68 = ORIENTED_EDGE ( 'NONE', *, *, #265, .T. ) ;
#69 = FACE_BOUND ( 'NONE', #9, .T. ) ;
#70 =( NAMED_UNIT ( * ) SI_UNIT ( $, .STERADIAN. ) SOLID_ANGLE_UNIT ( ) );
#71 = APPROVAL_DATE_TIME ( #207, #57 ) ;
#72 = ORIENTED_EDGE ( 'NONE', *, *, #55, .F. ) ;
#73 = ORIENTED_EDGE ( 'NONE', *, *, #147, .F. ) ;
#74 = DIRECTION ( 'NONE',  ( 0.000000000000000000, 0.000000000000000000, 1.000000000000000000 ) ) ;
#75 = DIRECTION ( 'NONE',  ( 0.000000000000000000, 0.000000000000000000, 1.000000000000000000 ) ) ;
#76 = LOCAL_TIME ( 14, 55, 10.00000000000000000, #239 ) ;
#77 = COORDINATED_UNIVERSAL_TIME_OFFSET ( 1, 0, .AHEAD. ) ;
#78 = PERSON_AND_ORGANIZATION_ROLE ( 'design_owner' ) ;
#79 = LOCAL_TIME ( 14, 55, 10.00000000000000000, #191 ) ;
#80 = AXIS2_PLACEMENT_3D ( 'NONE', #189, #210, #41 ) ;
#81 = PRODUCT_DEFINITION_FORMATION_WITH_SPECIFIED_SOURCE ( 'LIBOVOLNÝ', '', #248, .NOT_KNOWN. ) ;
#82 = ORIENTED_EDGE ( 'NONE', *, *, #26, .F. ) ;
#83 = CARTESIAN_POINT ( 'NONE',  ( -1.700000000000000400, 2.081899558550500773E-16, 3.000000000000004441 ) ) ;
#84 = ORIENTED_EDGE ( 'NONE', *, *, #5, .T. ) ;
#85 = DIRECTION ( 'NONE',  ( 0.000000000000000000, 0.000000000000000000, 1.000000000000000000 ) ) ;
#86 =( LENGTH_UNIT ( ) NAMED_UNIT ( * ) SI_UNIT ( .MILLI., .METRE. ) );
#87 = EDGE_CURVE ( 'NONE', #249, #165, #274, .T. ) ;
#88 = AXIS2_PLACEMENT_3D ( 'NONE', #197, #58, #288 ) ;
#89 = ORIENTED_EDGE ( 'NONE', *, *, #217, .T. ) ;
#90 = CARTESIAN_POINT ( 'NONE',  ( 1.700000000000000400, 0.000000000000000000, 3.000000000000004441 ) ) ;
#91 = DATE_TIME_ROLE ( 'classification_date' ) ;
#92 = ORIENTED_EDGE ( 'NONE', *, *, #106, .F. ) ;
#93 = CARTESIAN_POINT ( 'NONE',  ( 1.500000000000000222, 1.836970198721030181E-16, 203.0000000000000000 ) ) ;
#94 = DIRECTION ( 'NONE',  ( -0.000000000000000000, -0.000000000000000000, -1.000000000000000000 ) ) ;
#95 = APPROVAL_ROLE ( '' ) ;
#96 = DIRECTION ( 'NONE',  ( 1.000000000000000000, 0.000000000000000000, -0.000000000000000000 ) ) ;
#97 = DATE_AND_TIME ( #144, #281 ) ;
#98 = CIRCLE ( 'NONE', #307, 3.000000000000000444 ) ;
#99 =( GEOMETRIC_REPRESENTATION_CONTEXT ( 3 ) GLOBAL_UNCERTAINTY_ASSIGNED_CONTEXT ( ( #297 ) ) GLOBAL_UNIT_ASSIGNED_CONTEXT ( ( #86, #119, #70 ) ) REPRESENTATION_CONTEXT ( 'NONE', 'WORKASPACE' ) );
#100 = CC_DESIGN_PERSON_AND_ORGANIZATION_ASSIGNMENT ( #283, #212, ( #81 ) ) ;
#101 = AXIS2_PLACEMENT_3D ( 'NONE', #39, #137, #232 ) ;
#102 = ORIENTED_EDGE ( 'NONE', *, *, #66, .T. ) ;
#103 = CARTESIAN_POINT ( 'NONE',  ( -1.500000000000000222, 0.000000000000000000, 3.200000000000008171 ) ) ;
#104 = ORIENTED_EDGE ( 'NONE', *, *, #23, .T. ) ;
#105 = DIRECTION ( 'NONE',  ( 1.224646799147353207E-16, 1.000000000000000000, -0.000000000000000000 ) ) ;
#106 = EDGE_CURVE ( 'NONE', #40, #219, #186, .T. ) ;
#107 = PLANE ( 'NONE',  #284 ) ;
#108 = DIRECTION ( 'NONE',  ( 0.000000000000000000, 0.000000000000000000, 1.000000000000000000 ) ) ;
#109 = CARTESIAN_POINT ( 'NONE',  ( -1.500000000000000222, 0.000000000000000000, 203.0000000000000000 ) ) ;
#110 = DIRECTION ( 'NONE',  ( -0.000000000000000000, -0.000000000000000000, -1.000000000000000000 ) ) ;
#111 = AXIS2_PLACEMENT_3D ( 'NONE', #268, #250, #4 ) ;
#112 = CIRCLE ( 'NONE', #271, 1.700000000000000400 ) ;
#113 = PERSON_AND_ORGANIZATION ( #6, #127 ) ;
#114 = DESIGN_CONTEXT ( 'detailed design', #176, 'design' ) ;
#115 = AXIS2_PLACEMENT_3D ( 'NONE', #185, #273, #116 ) ;
#116 = DIRECTION ( 'NONE',  ( 1.000000000000000000, 0.000000000000000000, 0.000000000000000000 ) ) ;
#117 = VERTEX_POINT ( 'NONE', #90 ) ;
#118 = CARTESIAN_POINT ( 'NONE',  ( 0.000000000000000000, 0.000000000000000000, 3.000000000000000000 ) ) ;
#119 =( NAMED_UNIT ( * ) PLANE_ANGLE_UNIT ( ) SI_UNIT ( $, .RADIAN. ) );
#120 = CALENDAR_DATE ( 2022, 7, 7 ) ;
#121 = CARTESIAN_POINT ( 'NONE',  ( 0.000000000000000000, 0.000000000000000000, 3.000000000000000000 ) ) ;
#122 = DATE_AND_TIME ( #263, #162 ) ;
#123 = CIRCLE ( 'NONE', #111, 0.2000000000000000944 ) ;
#124 = CIRCLE ( 'NONE', #156, 0.2000000000000000944 ) ;
#125 = APPLICATION_CONTEXT ( 'configuration controlled 3d designs of mechanical parts and assemblies' ) ;
#126 = ADVANCED_FACE ( 'NONE', ( #69, #234 ), #17, .T. ) ;
#127 = ORGANIZATION ( 'NEURÈENÝ', 'NEURÈENÝ', '' ) ;
#128 = AXIS2_PLACEMENT_3D ( 'NONE', #121, #94, #18 ) ;
#129 = CC_DESIGN_APPROVAL ( #57, ( #303 ) ) ;
#130 = EDGE_LOOP ( 'NONE', ( #180, #84 ) ) ;
#131 = DIRECTION ( 'NONE',  ( 0.000000000000000000, 0.000000000000000000, 1.000000000000000000 ) ) ;
#132 = EDGE_LOOP ( 'NONE', ( #202, #82 ) ) ;
#133 = DIRECTION ( 'NONE',  ( 1.000000000000000000, 0.000000000000000000, 0.000000000000000000 ) ) ;
#134 = CC_DESIGN_DATE_AND_TIME_ASSIGNMENT ( #21, #91, ( #303 ) ) ;
#135 = EDGE_LOOP ( 'NONE', ( #161, #104, #289, #267 ) ) ;
#136 = FACE_OUTER_BOUND ( 'NONE', #1, .T. ) ;
#137 = DIRECTION ( 'NONE',  ( 0.000000000000000000, 0.000000000000000000, 1.000000000000000000 ) ) ;
#138 = ORIENTED_EDGE ( 'NONE', *, *, #193, .F. ) ;
#139 = DIRECTION ( 'NONE',  ( -0.000000000000000000, -0.000000000000000000, -1.000000000000000000 ) ) ;
#140 = CARTESIAN_POINT ( 'NONE',  ( 3.000000000000000444, 3.673940397442060361E-16, 0.000000000000000000 ) ) ;
#141 = PERSON_AND_ORGANIZATION_ROLE ( 'classification_officer' ) ;
#142 = DIRECTION ( 'NONE',  ( -0.000000000000000000, -0.000000000000000000, -1.000000000000000000 ) ) ;
#143 = DIRECTION ( 'NONE',  ( -0.000000000000000000, -0.000000000000000000, -1.000000000000000000 ) ) ;
#144 = CALENDAR_DATE ( 2022, 7, 7 ) ;
#145 = CARTESIAN_POINT ( 'NONE',  ( 0.000000000000000000, 0.000000000000000000, 0.000000000000000000 ) ) ;
#146 = APPROVAL_ROLE ( '' ) ;
#147 = EDGE_CURVE ( 'NONE', #249, #63, #61, .T. ) ;
#148 = PERSON_AND_ORGANIZATION ( #6, #127 ) ;
#149 = APPROVAL_PERSON_ORGANIZATION ( #304, #16, #146 ) ;
#150 = AXIS2_PLACEMENT_3D ( 'NONE', #8, #108, #238 ) ;
#151 = EDGE_CURVE ( 'NONE', #178, #117, #123, .T. ) ;
#152 = EDGE_CURVE ( 'NONE', #40, #233, #98, .T. ) ;
#153 = VERTEX_POINT ( 'NONE', #83 ) ;
#154 = DIRECTION ( 'NONE',  ( -1.000000000000000000, 1.224646799147353207E-16, 0.000000000000000000 ) ) ;
#155 = PRODUCT_DEFINITION ( 'NEZNÁMÝ', '', #81, #114 ) ;
#156 = AXIS2_PLACEMENT_3D ( 'NONE', #179, #105, #154 ) ;
#157 = AXIS2_PLACEMENT_3D ( 'NONE', #277, #19, #256 ) ;
#158 = EDGE_LOOP ( 'NONE', ( #237, #229 ) ) ;
#159 = CARTESIAN_POINT ( 'NONE',  ( 0.000000000000000000, 0.000000000000000000, 203.0000000000000000 ) ) ;
#160 = CC_DESIGN_PERSON_AND_ORGANIZATION_ASSIGNMENT ( #262, #22, ( #155 ) ) ;
#161 = ORIENTED_EDGE ( 'NONE', *, *, #195, .F. ) ;
#162 = LOCAL_TIME ( 14, 55, 10.00000000000000000, #77 ) ;
#163 = CARTESIAN_POINT ( 'NONE',  ( 0.000000000000000000, 0.000000000000000000, 0.000000000000000000 ) ) ;
#164 = FACE_OUTER_BOUND ( 'NONE', #3, .T. ) ;
#165 = VERTEX_POINT ( 'NONE', #103 ) ;
#166 = ORIENTED_EDGE ( 'NONE', *, *, #193, .T. ) ;
#167 = CARTESIAN_POINT ( 'NONE',  ( -3.000000000000000444, 0.000000000000000000, 3.000000000000000000 ) ) ;
#168 = CARTESIAN_POINT ( 'NONE',  ( 0.000000000000000000, 0.000000000000000000, 203.0000000000000000 ) ) ;
#169 = ORIENTED_EDGE ( 'NONE', *, *, #151, .F. ) ;
#170 = DIRECTION ( 'NONE',  ( 1.000000000000000000, 0.000000000000000000, -0.000000000000000000 ) ) ;
#171 = DIRECTION ( 'NONE',  ( 1.000000000000000000, 0.000000000000000000, 0.000000000000000000 ) ) ;
#172 = CC_DESIGN_APPROVAL ( #16, ( #155 ) ) ;
#173 = APPROVAL_STATUS ( 'not_yet_approved' ) ;
#174 = APPLICATION_PROTOCOL_DEFINITION ( 'international standard', 'config_control_design', 1994, #176 ) ;
#175 = ADVANCED_FACE ( 'NONE', ( #246 ), #218, .F. ) ;
#176 = APPLICATION_CONTEXT ( 'configuration controlled 3d designs of mechanical parts and assemblies' ) ;
#177 = AXIS2_PLACEMENT_3D ( 'NONE', #199, #85, #220 ) ;
#178 = VERTEX_POINT ( 'NONE', #291 ) ;
#179 = CARTESIAN_POINT ( 'NONE',  ( -1.700000000000000400, 2.081899558550500773E-16, 3.200000000000008171 ) ) ;
#180 = ORIENTED_EDGE ( 'NONE', *, *, #152, .T. ) ;
#181 = CARTESIAN_POINT ( 'NONE',  ( 0.000000000000000000, 0.000000000000000000, 3.200000000000008171 ) ) ;
#182 = PRODUCT_RELATED_PRODUCT_CATEGORY ( 'detail', '', ( #248 ) ) ;
#183 = CC_DESIGN_APPROVAL ( #240, ( #81 ) ) ;
#184 = CYLINDRICAL_SURFACE ( 'NONE', #213, 3.000000000000000444 ) ;
#185 = CARTESIAN_POINT ( 'NONE',  ( 0.000000000000000000, 0.000000000000000000, 3.000000000000000000 ) ) ;
#186 = LINE ( 'NONE', #167, #14 ) ;
#187 = PERSON_AND_ORGANIZATION ( #6, #127 ) ;
#188 = ORIENTED_EDGE ( 'NONE', *, *, #29, .F. ) ;
#189 = CARTESIAN_POINT ( 'NONE',  ( 0.000000000000000000, 0.000000000000000000, 0.000000000000000000 ) ) ;
#190 = CARTESIAN_POINT ( 'NONE',  ( 0.000000000000000000, 0.000000000000000000, 3.200000000000008171 ) ) ;
#191 = COORDINATED_UNIVERSAL_TIME_OFFSET ( 1, 0, .AHEAD. ) ;
#192 = PERSON_AND_ORGANIZATION ( #6, #127 ) ;
#193 = EDGE_CURVE ( 'NONE', #165, #153, #124, .T. ) ;
#194 = AXIS2_PLACEMENT_3D ( 'NONE', #118, #74, #170 ) ;
#195 = EDGE_CURVE ( 'NONE', #63, #249, #216, .T. ) ;
#196 = EDGE_LOOP ( 'NONE', ( #254, #166, #72, #169 ) ) ;
#197 = CARTESIAN_POINT ( 'NONE',  ( 0.000000000000000000, 0.000000000000000000, 3.200000000000008171 ) ) ;
#198 = ORIENTED_EDGE ( 'NONE', *, *, #55, .T. ) ;
#199 = CARTESIAN_POINT ( 'NONE',  ( 0.000000000000000000, 0.000000000000000000, 203.0000000000000000 ) ) ;
#200 = VECTOR ( 'NONE', #67, 1000.000000000000000 ) ;
#201 = DIRECTION ( 'NONE',  ( 0.000000000000000000, 0.000000000000000000, 1.000000000000000000 ) ) ;
#202 = ORIENTED_EDGE ( 'NONE', *, *, #66, .F. ) ;
#203 = FACE_OUTER_BOUND ( 'NONE', #258, .T. ) ;
#204 = CARTESIAN_POINT ( 'NONE',  ( -1.500000000000000222, 0.000000000000000000, 203.0000000000000000 ) ) ;
#205 = AXIS2_PLACEMENT_3D ( 'NONE', #260, #143, #46 ) ;
#206 = CC_DESIGN_PERSON_AND_ORGANIZATION_ASSIGNMENT ( #192, #78, ( #248 ) ) ;
#207 = DATE_AND_TIME ( #279, #79 ) ;
#208 = FACE_OUTER_BOUND ( 'NONE', #135, .T. ) ;
#209 = ORIENTED_EDGE ( 'NONE', *, *, #23, .F. ) ;
#210 = DIRECTION ( 'NONE',  ( 0.000000000000000000, 0.000000000000000000, 1.000000000000000000 ) ) ;
#211 = DIRECTION ( 'NONE',  ( 0.000000000000000000, 0.000000000000000000, 1.000000000000000000 ) ) ;
#212 = PERSON_AND_ORGANIZATION_ROLE ( 'creator' ) ;
#213 = AXIS2_PLACEMENT_3D ( 'NONE', #230, #261, #65 ) ;
#214 = CC_DESIGN_SECURITY_CLASSIFICATION ( #303, ( #81 ) ) ;
#215 = APPROVAL_ROLE ( '' ) ;
#216 = CIRCLE ( 'NONE', #177, 1.500000000000000222 ) ;
#217 = EDGE_CURVE ( 'NONE', #165, #178, #259, .T. ) ;
#218 = TOROIDAL_SURFACE ( 'NONE', #88, 1.700000000000000400, 0.2000000000000000111 ) ;
#219 = VERTEX_POINT ( 'NONE', #2 ) ;
#220 = DIRECTION ( 'NONE',  ( 1.000000000000000000, 0.000000000000000000, 0.000000000000000000 ) ) ;
#221 = VERTEX_POINT ( 'NONE', #140 ) ;
#222 = ADVANCED_FACE ( 'NONE', ( #136 ), #226, .T. ) ;
#223 = CARTESIAN_POINT ( 'NONE',  ( 0.000000000000000000, 0.000000000000000000, 3.000000000000000000 ) ) ;
#224 = TOROIDAL_SURFACE ( 'NONE', #13, 1.700000000000000400, 0.2000000000000000111 ) ;
#225 = CIRCLE ( 'NONE', #157, 1.700000000000000400 ) ;
#226 = CYLINDRICAL_SURFACE ( 'NONE', #128, 3.000000000000000444 ) ;
#227 = DIRECTION ( 'NONE',  ( -1.000000000000000000, 0.000000000000000000, 0.000000000000000000 ) ) ;
#228 = ADVANCED_FACE ( 'NONE', ( #164 ), #224, .F. ) ;
#229 = ORIENTED_EDGE ( 'NONE', *, *, #195, .T. ) ;
#230 = CARTESIAN_POINT ( 'NONE',  ( 0.000000000000000000, 0.000000000000000000, 3.000000000000000000 ) ) ;
#231 = SECURITY_CLASSIFICATION_LEVEL ( 'unclassified' ) ;
#232 = DIRECTION ( 'NONE',  ( 1.000000000000000000, 0.000000000000000000, 0.000000000000000000 ) ) ;
#233 = VERTEX_POINT ( 'NONE', #253 ) ;
#234 = FACE_OUTER_BOUND ( 'NONE', #130, .T. ) ;
#235 = CARTESIAN_POINT ( 'NONE',  ( 0.000000000000000000, 0.000000000000000000, 203.0000000000000000 ) ) ;
#236 = CIRCLE ( 'NONE', #150, 1.500000000000000222 ) ;
#237 = ORIENTED_EDGE ( 'NONE', *, *, #147, .T. ) ;
#238 = DIRECTION ( 'NONE',  ( 1.000000000000000000, 0.000000000000000000, 0.000000000000000000 ) ) ;
#239 = COORDINATED_UNIVERSAL_TIME_OFFSET ( 1, 0, .AHEAD. ) ;
#240 = APPROVAL ( #242, 'NEURÈENÝ' ) ;
#241 = COORDINATED_UNIVERSAL_TIME_OFFSET ( 1, 0, .AHEAD. ) ;
#242 = APPROVAL_STATUS ( 'not_yet_approved' ) ;
#243 = ADVANCED_FACE ( 'NONE', ( #301 ), #278, .F. ) ;
#244 = CC_DESIGN_PERSON_AND_ORGANIZATION_ASSIGNMENT ( #148, #141, ( #303 ) ) ;
#245 = ORIENTED_EDGE ( 'NONE', *, *, #5, .F. ) ;
#246 = FACE_OUTER_BOUND ( 'NONE', #196, .T. ) ;
#247 = VECTOR ( 'NONE', #295, 1000.000000000000000 ) ;
#248 = PRODUCT ( 'ac28', 'ac28', '', ( #37 ) ) ;
#249 = VERTEX_POINT ( 'NONE', #204 ) ;
#250 = DIRECTION ( 'NONE',  ( 0.000000000000000000, -1.000000000000000000, 0.000000000000000000 ) ) ;
#251 = APPROVAL_PERSON_ORGANIZATION ( #187, #240, #215 ) ;
#252 = DIRECTION ( 'NONE',  ( 1.000000000000000000, 0.000000000000000000, 0.000000000000000000 ) ) ;
#253 = CARTESIAN_POINT ( 'NONE',  ( 3.000000000000000444, 3.673940397442060361E-16, 3.000000000000000000 ) ) ;
#254 = ORIENTED_EDGE ( 'NONE', *, *, #217, .F. ) ;
#255 = EDGE_LOOP ( 'NONE', ( #34, #294, #45, #102 ) ) ;
#256 = DIRECTION ( 'NONE',  ( 1.000000000000000000, 0.000000000000000000, 0.000000000000000000 ) ) ;
#257 = PERSON_AND_ORGANIZATION_ROLE ( 'design_supplier' ) ;
#258 = EDGE_LOOP ( 'NONE', ( #209, #73, #269, #89 ) ) ;
#259 = CIRCLE ( 'NONE', #64, 1.500000000000000222 ) ;
#260 = CARTESIAN_POINT ( 'NONE',  ( 0.000000000000000000, 0.000000000000000000, 203.0000000000000000 ) ) ;
#261 = DIRECTION ( 'NONE',  ( -0.000000000000000000, -0.000000000000000000, -1.000000000000000000 ) ) ;
#262 = PERSON_AND_ORGANIZATION ( #6, #127 ) ;
#263 = CALENDAR_DATE ( 2022, 7, 7 ) ;
#264 = CIRCLE ( 'NONE', #101, 3.000000000000000444 ) ;
#265 = EDGE_CURVE ( 'NONE', #233, #221, #7, .T. ) ;
#266 = DIRECTION ( 'NONE',  ( 0.000000000000000000, 0.000000000000000000, 1.000000000000000000 ) ) ;
#267 = ORIENTED_EDGE ( 'NONE', *, *, #87, .F. ) ;
#268 = CARTESIAN_POINT ( 'NONE',  ( 1.700000000000000400, 0.000000000000000000, 3.200000000000008171 ) ) ;
#269 = ORIENTED_EDGE ( 'NONE', *, *, #87, .T. ) ;
#270 = ADVANCED_FACE ( 'NONE', ( #282 ), #184, .T. ) ;
#271 = AXIS2_PLACEMENT_3D ( 'NONE', #47, #11, #293 ) ;
#272 = DIRECTION ( 'NONE',  ( 0.000000000000000000, 0.000000000000000000, 1.000000000000000000 ) ) ;
#273 = DIRECTION ( 'NONE',  ( 0.000000000000000000, 0.000000000000000000, 1.000000000000000000 ) ) ;
#274 = LINE ( 'NONE', #109, #247 ) ;
#275 = APPROVAL_DATE_TIME ( #122, #240 ) ;
#276 = LINE ( 'NONE', #44, #200 ) ;
#277 = CARTESIAN_POINT ( 'NONE',  ( 0.000000000000000000, 0.000000000000000000, 3.000000000000000000 ) ) ;
#278 = PLANE ( 'NONE',  #36 ) ;
#279 = CALENDAR_DATE ( 2022, 7, 7 ) ;
#280 = CC_DESIGN_PERSON_AND_ORGANIZATION_ASSIGNMENT ( #50, #257, ( #81 ) ) ;
#281 = LOCAL_TIME ( 14, 55, 10.00000000000000000, #12 ) ;
#282 = FACE_OUTER_BOUND ( 'NONE', #255, .T. ) ;
#283 = PERSON_AND_ORGANIZATION ( #6, #127 ) ;
#284 = AXIS2_PLACEMENT_3D ( 'NONE', #235, #201, #96 ) ;
#285 = PRODUCT_DEFINITION_SHAPE ( 'NONE', 'NONE',  #155 ) ;
#286 = ORIENTED_EDGE ( 'NONE', *, *, #26, .T. ) ;
#287 = ADVANCED_FACE ( 'NONE', ( #38 ), #107, .T. ) ;
#288 = DIRECTION ( 'NONE',  ( 1.000000000000000000, 0.000000000000000000, 0.000000000000000000 ) ) ;
#289 = ORIENTED_EDGE ( 'NONE', *, *, #29, .T. ) ;
#290 = LOCAL_TIME ( 14, 55, 10.00000000000000000, #241 ) ;
#291 = CARTESIAN_POINT ( 'NONE',  ( 1.500000000000000222, 1.836970198721030181E-16, 3.200000000000008171 ) ) ;
#292 = CC_DESIGN_DATE_AND_TIME_ASSIGNMENT ( #97, #48, ( #155 ) ) ;
#293 = DIRECTION ( 'NONE',  ( 1.000000000000000000, 0.000000000000000000, 0.000000000000000000 ) ) ;
#294 = ORIENTED_EDGE ( 'NONE', *, *, #152, .F. ) ;
#295 = DIRECTION ( 'NONE',  ( -0.000000000000000000, -0.000000000000000000, -1.000000000000000000 ) ) ;
#296 = APPROVAL_DATE_TIME ( #43, #16 ) ;
#297 = UNCERTAINTY_MEASURE_WITH_UNIT (LENGTH_MEASURE( 1.000000000000000082E-05 ), #86, 'distance_accuracy_value', 'NONE');
#298 = CYLINDRICAL_SURFACE ( 'NONE', #54, 1.500000000000000222 ) ;
#299 = CARTESIAN_POINT ( 'NONE',  ( -3.000000000000000444, 0.000000000000000000, 3.000000000000000000 ) ) ;
#300 = APPROVAL_STATUS ( 'not_yet_approved' ) ;
#301 = FACE_OUTER_BOUND ( 'NONE', #132, .T. ) ;
#302 = CALENDAR_DATE ( 2022, 7, 7 ) ;
#303 = SECURITY_CLASSIFICATION ( '', '', #231 ) ;
#304 = PERSON_AND_ORGANIZATION ( #6, #127 ) ;
#305 = MANIFOLD_SOLID_BREP ( 'Zaoblit1', #52 ) ;
#306 = EDGE_CURVE ( 'NONE', #153, #117, #112, .T. ) ;
#307 = AXIS2_PLACEMENT_3D ( 'NONE', #223, #131, #62 ) ;
ENDSEC;
END-ISO-10303-21;
