ISO-10303-21;
HEADER;
FILE_DESCRIPTION (( 'STEP AP203' ),
    '1' );
FILE_NAME ('c71d.STEP',
    '2022-07-07T12:38:14',
    ( '' ),
    ( '' ),
    'SwSTEP 2.0',
    'SolidWorks 2019',
    '' );
FILE_SCHEMA (( 'CONFIG_CONTROL_DESIGN' ));
ENDSEC;

DATA;
#1 = EDGE_CURVE ( 'NONE', #282, #96, #188, .T. ) ;
#2 = DIRECTION ( 'NONE',  ( 1.000000000000000000, 0.000000000000000000, 0.000000000000000000 ) ) ;
#3 = VERTEX_POINT ( 'NONE', #297 ) ;
#4 = CYLINDRICAL_SURFACE ( 'NONE', #233, 3.500000000000000000 ) ;
#5 = CARTESIAN_POINT ( 'NONE',  ( 0.000000000000000000, 0.000000000000000000, 5.199999999999996625 ) ) ;
#6 = DIRECTION ( 'NONE',  ( -1.000000000000000000, 1.224646799147350742E-16, 0.000000000000000000 ) ) ;
#7 = ORIENTED_EDGE ( 'NONE', *, *, #229, .T. ) ;
#8 = FACE_OUTER_BOUND ( 'NONE', #28, .T. ) ;
#9 = EDGE_CURVE ( 'NONE', #3, #173, #114, .T. ) ;
#10 = CARTESIAN_POINT ( 'NONE',  ( 0.000000000000000000, 0.000000000000000000, 105.0000000000000142 ) ) ;
#11 = DIRECTION ( 'NONE',  ( 1.000000000000000000, 0.000000000000000000, 0.000000000000000000 ) ) ;
#12 = LOCAL_TIME ( 14, 38, 14.00000000000000000, #248 ) ;
#13 = CARTESIAN_POINT ( 'NONE',  ( 0.000000000000000000, 0.000000000000000000, 5.000000000000000000 ) ) ;
#14 = DIRECTION ( 'NONE',  ( 1.000000000000000000, 0.000000000000000000, 0.000000000000000000 ) ) ;
#15 = EDGE_CURVE ( 'NONE', #124, #103, #18, .T. ) ;
#16 = CARTESIAN_POINT ( 'NONE',  ( 0.000000000000000000, 0.000000000000000000, 0.000000000000000000 ) ) ;
#17 = DATE_AND_TIME ( #37, #201 ) ;
#18 = CIRCLE ( 'NONE', #90, 6.000000000000000888 ) ;
#19 = CALENDAR_DATE ( 2022, 7, 7 ) ;
#20 = LOCAL_TIME ( 14, 38, 14.00000000000000000, #276 ) ;
#21 = AXIS2_PLACEMENT_3D ( 'NONE', #52, #82, #6 ) ;
#22 = APPROVAL_PERSON_ORGANIZATION ( #299, #36, #87 ) ;
#23 = APPLICATION_CONTEXT ( 'configuration controlled 3d designs of mechanical parts and assemblies' ) ;
#24 = DIRECTION ( 'NONE',  ( 0.000000000000000000, 0.000000000000000000, 1.000000000000000000 ) ) ;
#25 = FACE_OUTER_BOUND ( 'NONE', #190, .T. ) ;
#26 = DIRECTION ( 'NONE',  ( -0.000000000000000000, -0.000000000000000000, -1.000000000000000000 ) ) ;
#27 = CIRCLE ( 'NONE', #21, 0.2000000000000000944 ) ;
#28 = EDGE_LOOP ( 'NONE', ( #68, #286, #307, #55 ) ) ;
#29 = DIRECTION ( 'NONE',  ( -1.000000000000000000, 0.000000000000000000, 0.000000000000000000 ) ) ;
#30 = CC_DESIGN_PERSON_AND_ORGANIZATION_ASSIGNMENT ( #251, #207, ( #119 ) ) ;
#31 = PLANE ( 'NONE',  #211 ) ;
#32 = CARTESIAN_POINT ( 'NONE',  ( 6.000000000000000888, 7.347880794884120722E-16, 5.000000000000000000 ) ) ;
#33 = DIRECTION ( 'NONE',  ( 0.000000000000000000, 0.000000000000000000, 1.000000000000000000 ) ) ;
#34 = PLANE ( 'NONE',  #268 ) ;
#35 = APPROVAL_PERSON_ORGANIZATION ( #228, #260, #64 ) ;
#36 = APPROVAL ( #85, 'NEURÈENÝ' ) ;
#37 = CALENDAR_DATE ( 2022, 7, 7 ) ;
#38 = PERSON_AND_ORGANIZATION ( #258, #134 ) ;
#39 = SHAPE_DEFINITION_REPRESENTATION ( #236, #77 ) ;
#40 = DATE_AND_TIME ( #164, #122 ) ;
#41 = UNCERTAINTY_MEASURE_WITH_UNIT (LENGTH_MEASURE( 1.000000000000000082E-05 ), #266, 'distance_accuracy_value', 'NONE');
#42 = CC_DESIGN_DATE_AND_TIME_ASSIGNMENT ( #89, #226, ( #244 ) ) ;
#43 = VERTEX_POINT ( 'NONE', #150 ) ;
#44 = EDGE_CURVE ( 'NONE', #242, #43, #102, .T. ) ;
#45 = EDGE_LOOP ( 'NONE', ( #194, #234, #198, #145 ) ) ;
#46 = DIRECTION ( 'NONE',  ( -0.000000000000000000, -0.000000000000000000, -1.000000000000000000 ) ) ;
#47 = CIRCLE ( 'NONE', #76, 3.500000000000000000 ) ;
#48 = AXIS2_PLACEMENT_3D ( 'NONE', #13, #222, #215 ) ;
#49 = CARTESIAN_POINT ( 'NONE',  ( 3.700000000000000178, 0.000000000000000000, 5.199999999999996625 ) ) ;
#50 = DIRECTION ( 'NONE',  ( 1.000000000000000000, 0.000000000000000000, 0.000000000000000000 ) ) ;
#51 = ORIENTED_EDGE ( 'NONE', *, *, #178, .F. ) ;
#52 = CARTESIAN_POINT ( 'NONE',  ( -3.700000000000000178, 4.531193156845206201E-16, 5.199999999999996625 ) ) ;
#53 = DIRECTION ( 'NONE',  ( 0.000000000000000000, -1.000000000000000000, 0.000000000000000000 ) ) ;
#54 = DIRECTION ( 'NONE',  ( -1.000000000000000000, 0.000000000000000000, 0.000000000000000000 ) ) ;
#55 = ORIENTED_EDGE ( 'NONE', *, *, #133, .F. ) ;
#56 = DIRECTION ( 'NONE',  ( 0.000000000000000000, 0.000000000000000000, 1.000000000000000000 ) ) ;
#57 = APPROVAL_PERSON_ORGANIZATION ( #230, #69, #117 ) ;
#58 = PERSON_AND_ORGANIZATION_ROLE ( 'design_supplier' ) ;
#59 = CLOSED_SHELL ( 'NONE', ( #301, #86, #160, #274, #144, #283, #280, #66, #61 ) ) ;
#60 = COORDINATED_UNIVERSAL_TIME_OFFSET ( 1, 0, .AHEAD. ) ;
#61 = ADVANCED_FACE ( 'NONE', ( #216 ), #259, .F. ) ;
#62 = TOROIDAL_SURFACE ( 'NONE', #247, 3.700000000000000178, 0.2000000000000000111 ) ;
#63 = APPROVAL_DATE_TIME ( #17, #36 ) ;
#64 = APPROVAL_ROLE ( '' ) ;
#65 = ORIENTED_EDGE ( 'NONE', *, *, #218, .T. ) ;
#66 = ADVANCED_FACE ( 'NONE', ( #196 ), #31, .T. ) ;
#67 = ORIENTED_EDGE ( 'NONE', *, *, #44, .F. ) ;
#68 = ORIENTED_EDGE ( 'NONE', *, *, #1, .F. ) ;
#69 = APPROVAL ( #249, 'NEURÈENÝ' ) ;
#70 = CIRCLE ( 'NONE', #300, 3.500000000000000000 ) ;
#71 = CARTESIAN_POINT ( 'NONE',  ( 0.000000000000000000, 0.000000000000000000, 105.0000000000000142 ) ) ;
#72 = PRODUCT_DEFINITION_FORMATION_WITH_SPECIFIED_SOURCE ( 'LIBOVOLNÝ', '', #119, .NOT_KNOWN. ) ;
#73 = CARTESIAN_POINT ( 'NONE',  ( 0.000000000000000000, 0.000000000000000000, 105.0000000000000142 ) ) ;
#74 = CARTESIAN_POINT ( 'NONE',  ( 3.500000000000000000, 4.286263797015736595E-16, 5.199999999999996625 ) ) ;
#75 = VERTEX_POINT ( 'NONE', #152 ) ;
#76 = AXIS2_PLACEMENT_3D ( 'NONE', #10, #105, #200 ) ;
#77 = ADVANCED_BREP_SHAPE_REPRESENTATION ( 'c71d', ( #141, #88 ), #186 ) ;
#78 = CARTESIAN_POINT ( 'NONE',  ( 0.000000000000000000, 0.000000000000000000, 0.000000000000000000 ) ) ;
#79 = ORIENTED_EDGE ( 'NONE', *, *, #250, .T. ) ;
#80 = DIRECTION ( 'NONE',  ( -0.000000000000000000, -0.000000000000000000, -1.000000000000000000 ) ) ;
#81 = CARTESIAN_POINT ( 'NONE',  ( 6.000000000000000888, 7.347880794884120722E-16, 0.000000000000000000 ) ) ;
#82 = DIRECTION ( 'NONE',  ( 1.224646799147353207E-16, 1.000000000000000000, -0.000000000000000000 ) ) ;
#83 = CARTESIAN_POINT ( 'NONE',  ( 0.000000000000000000, 0.000000000000000000, 0.000000000000000000 ) ) ;
#84 = PERSON_AND_ORGANIZATION ( #258, #134 ) ;
#85 = APPROVAL_STATUS ( 'not_yet_approved' ) ;
#86 = ADVANCED_FACE ( 'NONE', ( #193 ), #213, .T. ) ;
#87 = APPROVAL_ROLE ( '' ) ;
#88 = AXIS2_PLACEMENT_3D ( 'NONE', #16, #254, #140 ) ;
#89 = DATE_AND_TIME ( #142, #12 ) ;
#90 = AXIS2_PLACEMENT_3D ( 'NONE', #264, #177, #270 ) ;
#91 = ORIENTED_EDGE ( 'NONE', *, *, #304, .F. ) ;
#92 = AXIS2_PLACEMENT_3D ( 'NONE', #221, #181, #29 ) ;
#93 = ORIENTED_EDGE ( 'NONE', *, *, #15, .F. ) ;
#94 = ORIENTED_EDGE ( 'NONE', *, *, #1, .T. ) ;
#95 = DIRECTION ( 'NONE',  ( 1.000000000000000000, 0.000000000000000000, 0.000000000000000000 ) ) ;
#96 = VERTEX_POINT ( 'NONE', #219 ) ;
#97 = CC_DESIGN_APPROVAL ( #36, ( #72 ) ) ;
#98 = DIRECTION ( 'NONE',  ( -0.000000000000000000, -0.000000000000000000, -1.000000000000000000 ) ) ;
#99 = EDGE_CURVE ( 'NONE', #173, #3, #47, .T. ) ;
#100 = DIRECTION ( 'NONE',  ( 1.000000000000000000, 0.000000000000000000, 0.000000000000000000 ) ) ;
#101 = LINE ( 'NONE', #238, #252 ) ;
#102 = CIRCLE ( 'NONE', #265, 0.1999999999999996503 ) ;
#103 = VERTEX_POINT ( 'NONE', #287 ) ;
#104 = FACE_OUTER_BOUND ( 'NONE', #293, .T. ) ;
#105 = DIRECTION ( 'NONE',  ( 0.000000000000000000, 0.000000000000000000, 1.000000000000000000 ) ) ;
#106 = CC_DESIGN_APPROVAL ( #69, ( #112 ) ) ;
#107 = DIRECTION ( 'NONE',  ( 1.000000000000000000, 0.000000000000000000, 0.000000000000000000 ) ) ;
#108 = FACE_OUTER_BOUND ( 'NONE', #191, .T. ) ;
#109 = AXIS2_PLACEMENT_3D ( 'NONE', #289, #235, #2 ) ;
#110 = SECURITY_CLASSIFICATION_LEVEL ( 'unclassified' ) ;
#111 = PRODUCT_RELATED_PRODUCT_CATEGORY ( 'detail', '', ( #119 ) ) ;
#112 = SECURITY_CLASSIFICATION ( '', '', #110 ) ;
#113 = MECHANICAL_CONTEXT ( 'NONE', #303, 'mechanical' ) ;
#114 = CIRCLE ( 'NONE', #285, 3.500000000000000000 ) ;
#115 = APPROVAL_STATUS ( 'not_yet_approved' ) ;
#116 = AXIS2_PLACEMENT_3D ( 'NONE', #158, #298, #50 ) ;
#117 = APPROVAL_ROLE ( '' ) ;
#118 = EDGE_LOOP ( 'NONE', ( #214, #93 ) ) ;
#119 = PRODUCT ( 'c71d', 'c71d', '', ( #113 ) ) ;
#120 = VECTOR ( 'NONE', #246, 1000.000000000000000 ) ;
#121 = CC_DESIGN_PERSON_AND_ORGANIZATION_ASSIGNMENT ( #84, #58, ( #72 ) ) ;
#122 = LOCAL_TIME ( 14, 38, 14.00000000000000000, #278 ) ;
#123 = DIRECTION ( 'NONE',  ( 0.000000000000000000, 0.000000000000000000, 1.000000000000000000 ) ) ;
#124 = VERTEX_POINT ( 'NONE', #81 ) ;
#125 = CC_DESIGN_PERSON_AND_ORGANIZATION_ASSIGNMENT ( #279, #305, ( #244 ) ) ;
#126 = CIRCLE ( 'NONE', #205, 6.000000000000000888 ) ;
#127 = ORIENTED_EDGE ( 'NONE', *, *, #146, .T. ) ;
#128 = DIRECTION ( 'NONE',  ( 0.000000000000000000, 0.000000000000000000, 1.000000000000000000 ) ) ;
#129 = DIRECTION ( 'NONE',  ( -1.000000000000000000, 0.000000000000000000, 0.000000000000000000 ) ) ;
#130 = CARTESIAN_POINT ( 'NONE',  ( -3.500000000000000000, 0.000000000000000000, 105.0000000000000142 ) ) ;
#131 = ORIENTED_EDGE ( 'NONE', *, *, #170, .T. ) ;
#132 = FACE_OUTER_BOUND ( 'NONE', #118, .T. ) ;
#133 = EDGE_CURVE ( 'NONE', #96, #103, #180, .T. ) ;
#134 = ORGANIZATION ( 'NEURÈENÝ', 'NEURÈENÝ', '' ) ;
#135 = CARTESIAN_POINT ( 'NONE',  ( 0.000000000000000000, 0.000000000000000000, 5.000000000000000000 ) ) ;
#136 = DIRECTION ( 'NONE',  ( -0.000000000000000000, -0.000000000000000000, -1.000000000000000000 ) ) ;
#137 = DATE_AND_TIME ( #206, #202 ) ;
#138 = AXIS2_PLACEMENT_3D ( 'NONE', #5, #123, #100 ) ;
#139 = AXIS2_PLACEMENT_3D ( 'NONE', #290, #224, #14 ) ;
#140 = DIRECTION ( 'NONE',  ( 1.000000000000000000, 0.000000000000000000, 0.000000000000000000 ) ) ;
#141 = MANIFOLD_SOLID_BREP ( 'Zaoblit1', #59 ) ;
#142 = CALENDAR_DATE ( 2022, 7, 7 ) ;
#143 = EDGE_LOOP ( 'NONE', ( #167, #79, #168, #192 ) ) ;
#144 = ADVANCED_FACE ( 'NONE', ( #147, #25 ), #245, .T. ) ;
#145 = ORIENTED_EDGE ( 'NONE', *, *, #209, .F. ) ;
#146 = EDGE_CURVE ( 'NONE', #43, #75, #277, .T. ) ;
#147 = FACE_BOUND ( 'NONE', #241, .T. ) ;
#148 = AXIS2_PLACEMENT_3D ( 'NONE', #220, #262, #129 ) ;
#149 = DIRECTION ( 'NONE',  ( 1.000000000000000000, 0.000000000000000000, 0.000000000000000000 ) ) ;
#150 = CARTESIAN_POINT ( 'NONE',  ( 3.700000000000000178, 0.000000000000000000, 4.999999999999998224 ) ) ;
#151 = CARTESIAN_POINT ( 'NONE',  ( 0.000000000000000000, 0.000000000000000000, 5.000000000000000000 ) ) ;
#152 = CARTESIAN_POINT ( 'NONE',  ( -3.700000000000000178, 4.531193156845206201E-16, 4.999999999999998224 ) ) ;
#153 = LINE ( 'NONE', #204, #294 ) ;
#154 = DIRECTION ( 'NONE',  ( 0.000000000000000000, 0.000000000000000000, -1.000000000000000000 ) ) ;
#155 = LINE ( 'NONE', #130, #120 ) ;
#156 = EDGE_CURVE ( 'NONE', #103, #124, #126, .T. ) ;
#157 = DIRECTION ( 'NONE',  ( 1.000000000000000000, 0.000000000000000000, -0.000000000000000000 ) ) ;
#158 = CARTESIAN_POINT ( 'NONE',  ( 0.000000000000000000, 0.000000000000000000, 5.000000000000000000 ) ) ;
#159 = APPLICATION_PROTOCOL_DEFINITION ( 'international standard', 'config_control_design', 1994, #303 ) ;
#160 = ADVANCED_FACE ( 'NONE', ( #8 ), #217, .T. ) ;
#161 = DATE_TIME_ROLE ( 'classification_date' ) ;
#162 = AXIS2_PLACEMENT_3D ( 'NONE', #135, #33, #157 ) ;
#163 =( NAMED_UNIT ( * ) SI_UNIT ( $, .STERADIAN. ) SOLID_ANGLE_UNIT ( ) );
#164 = CALENDAR_DATE ( 2022, 7, 7 ) ;
#165 = CC_DESIGN_APPROVAL ( #260, ( #244 ) ) ;
#166 = COORDINATED_UNIVERSAL_TIME_OFFSET ( 1, 0, .AHEAD. ) ;
#167 = ORIENTED_EDGE ( 'NONE', *, *, #99, .F. ) ;
#168 = ORIENTED_EDGE ( 'NONE', *, *, #288, .T. ) ;
#169 = CIRCLE ( 'NONE', #116, 6.000000000000000888 ) ;
#170 = EDGE_CURVE ( 'NONE', #237, #242, #70, .T. ) ;
#171 = CIRCLE ( 'NONE', #139, 3.500000000000000000 ) ;
#172 = CARTESIAN_POINT ( 'NONE',  ( -6.000000000000000888, 0.000000000000000000, 5.000000000000000000 ) ) ;
#173 = VERTEX_POINT ( 'NONE', #175 ) ;
#174 = ORIENTED_EDGE ( 'NONE', *, *, #9, .T. ) ;
#175 = CARTESIAN_POINT ( 'NONE',  ( 3.500000000000000000, 4.286263797015736595E-16, 105.0000000000000142 ) ) ;
#176 = CIRCLE ( 'NONE', #212, 3.700000000000000178 ) ;
#177 = DIRECTION ( 'NONE',  ( 0.000000000000000000, 0.000000000000000000, 1.000000000000000000 ) ) ;
#178 = EDGE_CURVE ( 'NONE', #96, #282, #169, .T. ) ;
#179 = DIRECTION ( 'NONE',  ( -1.000000000000000000, 0.000000000000000000, 0.000000000000000000 ) ) ;
#180 = LINE ( 'NONE', #172, #225 ) ;
#181 = DIRECTION ( 'NONE',  ( -0.000000000000000000, -0.000000000000000000, -1.000000000000000000 ) ) ;
#182 = DIRECTION ( 'NONE',  ( 1.000000000000000000, 0.000000000000000000, -0.000000000000000000 ) ) ;
#183 = APPLICATION_PROTOCOL_DEFINITION ( 'international standard', 'config_control_design', 1994, #23 ) ;
#184 = PERSON_AND_ORGANIZATION_ROLE ( 'creator' ) ;
#185 = DATE_AND_TIME ( #19, #20 ) ;
#186 =( GEOMETRIC_REPRESENTATION_CONTEXT ( 3 ) GLOBAL_UNCERTAINTY_ASSIGNED_CONTEXT ( ( #41 ) ) GLOBAL_UNIT_ASSIGNED_CONTEXT ( ( #266, #187, #163 ) ) REPRESENTATION_CONTEXT ( 'NONE', 'WORKASPACE' ) );
#187 =( NAMED_UNIT ( * ) PLANE_ANGLE_UNIT ( ) SI_UNIT ( $, .RADIAN. ) );
#188 = CIRCLE ( 'NONE', #109, 6.000000000000000888 ) ;
#189 = AXIS2_PLACEMENT_3D ( 'NONE', #151, #80, #179 ) ;
#190 = EDGE_LOOP ( 'NONE', ( #272, #94 ) ) ;
#191 = EDGE_LOOP ( 'NONE', ( #232, #65, #306, #67 ) ) ;
#192 = ORIENTED_EDGE ( 'NONE', *, *, #229, .F. ) ;
#193 = FACE_OUTER_BOUND ( 'NONE', #143, .T. ) ;
#194 = ORIENTED_EDGE ( 'NONE', *, *, #218, .F. ) ;
#195 = DIRECTION ( 'NONE',  ( -0.000000000000000000, -0.000000000000000000, -1.000000000000000000 ) ) ;
#196 = FACE_OUTER_BOUND ( 'NONE', #239, .T. ) ;
#197 = CARTESIAN_POINT ( 'NONE',  ( 0.000000000000000000, 0.000000000000000000, 5.199999999999996625 ) ) ;
#198 = ORIENTED_EDGE ( 'NONE', *, *, #44, .T. ) ;
#199 = CYLINDRICAL_SURFACE ( 'NONE', #189, 6.000000000000000888 ) ;
#200 = DIRECTION ( 'NONE',  ( 1.000000000000000000, 0.000000000000000000, 0.000000000000000000 ) ) ;
#201 = LOCAL_TIME ( 14, 38, 14.00000000000000000, #166 ) ;
#202 = LOCAL_TIME ( 14, 38, 14.00000000000000000, #60 ) ;
#203 = DIRECTION ( 'NONE',  ( 0.000000000000000000, 0.000000000000000000, 1.000000000000000000 ) ) ;
#204 = CARTESIAN_POINT ( 'NONE',  ( 3.500000000000000000, 4.286263797015736595E-16, 105.0000000000000142 ) ) ;
#205 = AXIS2_PLACEMENT_3D ( 'NONE', #78, #203, #11 ) ;
#206 = CALENDAR_DATE ( 2022, 7, 7 ) ;
#207 = PERSON_AND_ORGANIZATION_ROLE ( 'design_owner' ) ;
#208 = ORIENTED_EDGE ( 'NONE', *, *, #156, .T. ) ;
#209 = EDGE_CURVE ( 'NONE', #75, #43, #176, .T. ) ;
#210 = ORIENTED_EDGE ( 'NONE', *, *, #99, .T. ) ;
#211 = AXIS2_PLACEMENT_3D ( 'NONE', #71, #291, #267 ) ;
#212 = AXIS2_PLACEMENT_3D ( 'NONE', #273, #195, #269 ) ;
#213 = CYLINDRICAL_SURFACE ( 'NONE', #148, 3.500000000000000000 ) ;
#214 = ORIENTED_EDGE ( 'NONE', *, *, #156, .F. ) ;
#215 = DIRECTION ( 'NONE',  ( 1.000000000000000000, 0.000000000000000000, 0.000000000000000000 ) ) ;
#216 = FACE_OUTER_BOUND ( 'NONE', #45, .T. ) ;
#217 = CYLINDRICAL_SURFACE ( 'NONE', #92, 6.000000000000000888 ) ;
#218 = EDGE_CURVE ( 'NONE', #237, #75, #27, .T. ) ;
#219 = CARTESIAN_POINT ( 'NONE',  ( -6.000000000000000888, 0.000000000000000000, 5.000000000000000000 ) ) ;
#220 = CARTESIAN_POINT ( 'NONE',  ( 0.000000000000000000, 0.000000000000000000, 105.0000000000000142 ) ) ;
#221 = CARTESIAN_POINT ( 'NONE',  ( 0.000000000000000000, 0.000000000000000000, 5.000000000000000000 ) ) ;
#222 = DIRECTION ( 'NONE',  ( -0.000000000000000000, -0.000000000000000000, -1.000000000000000000 ) ) ;
#223 = CC_DESIGN_PERSON_AND_ORGANIZATION_ASSIGNMENT ( #231, #184, ( #72 ) ) ;
#224 = DIRECTION ( 'NONE',  ( 0.000000000000000000, 0.000000000000000000, 1.000000000000000000 ) ) ;
#225 = VECTOR ( 'NONE', #46, 1000.000000000000000 ) ;
#226 = DATE_TIME_ROLE ( 'creation_date' ) ;
#227 = APPROVAL_DATE_TIME ( #137, #260 ) ;
#228 = PERSON_AND_ORGANIZATION ( #258, #134 ) ;
#229 = EDGE_CURVE ( 'NONE', #3, #237, #155, .T. ) ;
#230 = PERSON_AND_ORGANIZATION ( #258, #134 ) ;
#231 = PERSON_AND_ORGANIZATION ( #258, #134 ) ;
#232 = ORIENTED_EDGE ( 'NONE', *, *, #170, .F. ) ;
#233 = AXIS2_PLACEMENT_3D ( 'NONE', #243, #136, #54 ) ;
#234 = ORIENTED_EDGE ( 'NONE', *, *, #288, .F. ) ;
#235 = DIRECTION ( 'NONE',  ( 0.000000000000000000, 0.000000000000000000, 1.000000000000000000 ) ) ;
#236 = PRODUCT_DEFINITION_SHAPE ( 'NONE', 'NONE',  #244 ) ;
#237 = VERTEX_POINT ( 'NONE', #292 ) ;
#238 = CARTESIAN_POINT ( 'NONE',  ( 6.000000000000000888, 7.347880794884120722E-16, 5.000000000000000000 ) ) ;
#239 = EDGE_LOOP ( 'NONE', ( #174, #210 ) ) ;
#240 = CC_DESIGN_PERSON_AND_ORGANIZATION_ASSIGNMENT ( #38, #302, ( #112 ) ) ;
#241 = EDGE_LOOP ( 'NONE', ( #127, #257 ) ) ;
#242 = VERTEX_POINT ( 'NONE', #74 ) ;
#243 = CARTESIAN_POINT ( 'NONE',  ( 0.000000000000000000, 0.000000000000000000, 105.0000000000000142 ) ) ;
#244 = PRODUCT_DEFINITION ( 'NEZNÁMÝ', '', #72, #256 ) ;
#245 = PLANE ( 'NONE',  #162 ) ;
#246 = DIRECTION ( 'NONE',  ( -0.000000000000000000, -0.000000000000000000, -1.000000000000000000 ) ) ;
#247 = AXIS2_PLACEMENT_3D ( 'NONE', #197, #275, #149 ) ;
#248 = COORDINATED_UNIVERSAL_TIME_OFFSET ( 1, 0, .AHEAD. ) ;
#249 = APPROVAL_STATUS ( 'not_yet_approved' ) ;
#250 = EDGE_CURVE ( 'NONE', #173, #242, #153, .T. ) ;
#251 = PERSON_AND_ORGANIZATION ( #258, #134 ) ;
#252 = VECTOR ( 'NONE', #26, 1000.000000000000000 ) ;
#253 = APPROVAL_DATE_TIME ( #40, #69 ) ;
#254 = DIRECTION ( 'NONE',  ( 0.000000000000000000, 0.000000000000000000, 1.000000000000000000 ) ) ;
#255 = ORIENTED_EDGE ( 'NONE', *, *, #9, .F. ) ;
#256 = DESIGN_CONTEXT ( 'detailed design', #23, 'design' ) ;
#257 = ORIENTED_EDGE ( 'NONE', *, *, #209, .T. ) ;
#258 = PERSON ( 'NEURÈENÝ', 'NEURÈENÝ', 'NEURÈENÝ', ('NEURÈENÝ'), ('NEURÈENÝ'), ('NEURÈENÝ') ) ;
#259 = TOROIDAL_SURFACE ( 'NONE', #138, 3.700000000000000178, 0.2000000000000000111 ) ;
#260 = APPROVAL ( #115, 'NEURÈENÝ' ) ;
#261 = ORIENTED_EDGE ( 'NONE', *, *, #133, .T. ) ;
#262 = DIRECTION ( 'NONE',  ( -0.000000000000000000, -0.000000000000000000, -1.000000000000000000 ) ) ;
#263 = CC_DESIGN_DATE_AND_TIME_ASSIGNMENT ( #185, #161, ( #112 ) ) ;
#264 = CARTESIAN_POINT ( 'NONE',  ( 0.000000000000000000, 0.000000000000000000, 0.000000000000000000 ) ) ;
#265 = AXIS2_PLACEMENT_3D ( 'NONE', #49, #53, #154 ) ;
#266 =( LENGTH_UNIT ( ) NAMED_UNIT ( * ) SI_UNIT ( .MILLI., .METRE. ) );
#267 = DIRECTION ( 'NONE',  ( 1.000000000000000000, 0.000000000000000000, -0.000000000000000000 ) ) ;
#268 = AXIS2_PLACEMENT_3D ( 'NONE', #83, #128, #182 ) ;
#269 = DIRECTION ( 'NONE',  ( 1.000000000000000000, 0.000000000000000000, 0.000000000000000000 ) ) ;
#270 = DIRECTION ( 'NONE',  ( 1.000000000000000000, 0.000000000000000000, 0.000000000000000000 ) ) ;
#271 = FACE_OUTER_BOUND ( 'NONE', #281, .T. ) ;
#272 = ORIENTED_EDGE ( 'NONE', *, *, #178, .T. ) ;
#273 = CARTESIAN_POINT ( 'NONE',  ( 0.000000000000000000, 0.000000000000000000, 5.000000000000000000 ) ) ;
#274 = ADVANCED_FACE ( 'NONE', ( #104 ), #199, .T. ) ;
#275 = DIRECTION ( 'NONE',  ( 0.000000000000000000, 0.000000000000000000, 1.000000000000000000 ) ) ;
#276 = COORDINATED_UNIVERSAL_TIME_OFFSET ( 1, 0, .AHEAD. ) ;
#277 = CIRCLE ( 'NONE', #48, 3.700000000000000178 ) ;
#278 = COORDINATED_UNIVERSAL_TIME_OFFSET ( 1, 0, .AHEAD. ) ;
#279 = PERSON_AND_ORGANIZATION ( #258, #134 ) ;
#280 = ADVANCED_FACE ( 'NONE', ( #271 ), #4, .T. ) ;
#281 = EDGE_LOOP ( 'NONE', ( #284, #255, #7, #131 ) ) ;
#282 = VERTEX_POINT ( 'NONE', #32 ) ;
#283 = ADVANCED_FACE ( 'NONE', ( #132 ), #34, .F. ) ;
#284 = ORIENTED_EDGE ( 'NONE', *, *, #250, .F. ) ;
#285 = AXIS2_PLACEMENT_3D ( 'NONE', #73, #24, #95 ) ;
#286 = ORIENTED_EDGE ( 'NONE', *, *, #304, .T. ) ;
#287 = CARTESIAN_POINT ( 'NONE',  ( -6.000000000000000888, 0.000000000000000000, 0.000000000000000000 ) ) ;
#288 = EDGE_CURVE ( 'NONE', #242, #237, #171, .T. ) ;
#289 = CARTESIAN_POINT ( 'NONE',  ( 0.000000000000000000, 0.000000000000000000, 5.000000000000000000 ) ) ;
#290 = CARTESIAN_POINT ( 'NONE',  ( 0.000000000000000000, 0.000000000000000000, 5.199999999999996625 ) ) ;
#291 = DIRECTION ( 'NONE',  ( 0.000000000000000000, 0.000000000000000000, 1.000000000000000000 ) ) ;
#292 = CARTESIAN_POINT ( 'NONE',  ( -3.500000000000000000, 0.000000000000000000, 5.199999999999996625 ) ) ;
#293 = EDGE_LOOP ( 'NONE', ( #91, #51, #261, #208 ) ) ;
#294 = VECTOR ( 'NONE', #98, 1000.000000000000000 ) ;
#295 = CARTESIAN_POINT ( 'NONE',  ( 0.000000000000000000, 0.000000000000000000, 5.199999999999996625 ) ) ;
#296 = CC_DESIGN_SECURITY_CLASSIFICATION ( #112, ( #72 ) ) ;
#297 = CARTESIAN_POINT ( 'NONE',  ( -3.500000000000000000, 0.000000000000000000, 105.0000000000000142 ) ) ;
#298 = DIRECTION ( 'NONE',  ( 0.000000000000000000, 0.000000000000000000, 1.000000000000000000 ) ) ;
#299 = PERSON_AND_ORGANIZATION ( #258, #134 ) ;
#300 = AXIS2_PLACEMENT_3D ( 'NONE', #295, #56, #107 ) ;
#301 = ADVANCED_FACE ( 'NONE', ( #108 ), #62, .F. ) ;
#302 = PERSON_AND_ORGANIZATION_ROLE ( 'classification_officer' ) ;
#303 = APPLICATION_CONTEXT ( 'configuration controlled 3d designs of mechanical parts and assemblies' ) ;
#304 = EDGE_CURVE ( 'NONE', #282, #124, #101, .T. ) ;
#305 = PERSON_AND_ORGANIZATION_ROLE ( 'creator' ) ;
#306 = ORIENTED_EDGE ( 'NONE', *, *, #146, .F. ) ;
#307 = ORIENTED_EDGE ( 'NONE', *, *, #15, .T. ) ;
ENDSEC;
END-ISO-10303-21;
