ISO-10303-21;
HEADER;
FILE_DESCRIPTION (( 'STEP AP203' ),
    '1' );
FILE_NAME ('5cfb.STEP',
    '2023-02-12T12:10:58',
    ( '' ),
    ( '' ),
    'SwSTEP 2.0',
    'SolidWorks 2019',
    '' );
FILE_SCHEMA (( 'CONFIG_CONTROL_DESIGN' ));
ENDSEC;

DATA;
#1 = ORIENTED_EDGE ( 'NONE', *, *, #115, .F. ) ;
#2 = ORIENTED_EDGE ( 'NONE', *, *, #67, .F. ) ;
#3 = CC_DESIGN_DATE_AND_TIME_ASSIGNMENT ( #247, #132, ( #136 ) ) ;
#4 = ORIENTED_EDGE ( 'NONE', *, *, #218, .F. ) ;
#5 = EDGE_LOOP ( 'NONE', ( #2, #86, #100, #240 ) ) ;
#6 = APPROVAL_PERSON_ORGANIZATION ( #9, #120, #92 ) ;
#7 = AXIS2_PLACEMENT_3D ( 'NONE', #163, #145, #69 ) ;
#8 = CARTESIAN_POINT ( 'NONE',  ( 3.500000000000000000, 4.286263797015736595E-16, 0.000000000000000000 ) ) ;
#9 = PERSON_AND_ORGANIZATION ( #41, #253 ) ;
#10 = DIRECTION ( 'NONE',  ( -0.000000000000000000, -0.000000000000000000, -1.000000000000000000 ) ) ;
#11 =( NAMED_UNIT ( * ) SI_UNIT ( $, .STERADIAN. ) SOLID_ANGLE_UNIT ( ) );
#12 = APPLICATION_CONTEXT ( 'configuration controlled 3d designs of mechanical parts and assemblies' ) ;
#13 = DIRECTION ( 'NONE',  ( 0.000000000000000000, 0.000000000000000000, 1.000000000000000000 ) ) ;
#14 = AXIS2_PLACEMENT_3D ( 'NONE', #225, #52, #31 ) ;
#15 = DIRECTION ( 'NONE',  ( 1.000000000000000000, 0.000000000000000000, 0.000000000000000000 ) ) ;
#16 = DIRECTION ( 'NONE',  ( 1.000000000000000000, 0.000000000000000000, 0.000000000000000000 ) ) ;
#17 = APPROVAL_STATUS ( 'not_yet_approved' ) ;
#18 = ADVANCED_FACE ( 'NONE', ( #140 ), #82, .T. ) ;
#19 = CC_DESIGN_APPROVAL ( #120, ( #96 ) ) ;
#20 = CC_DESIGN_APPROVAL ( #73, ( #88 ) ) ;
#21 = EDGE_CURVE ( 'NONE', #65, #157, #58, .T. ) ;
#22 = EDGE_LOOP ( 'NONE', ( #221, #179, #159, #143 ) ) ;
#23 = DIRECTION ( 'NONE',  ( -1.000000000000000000, 0.000000000000000000, 0.000000000000000000 ) ) ;
#24 = ORIENTED_EDGE ( 'NONE', *, *, #21, .F. ) ;
#25 = DIRECTION ( 'NONE',  ( 0.000000000000000000, 0.000000000000000000, 1.000000000000000000 ) ) ;
#26 = AXIS2_PLACEMENT_3D ( 'NONE', #160, #101, #85 ) ;
#27 = LINE ( 'NONE', #122, #59 ) ;
#28 = APPROVAL_ROLE ( '' ) ;
#29 = CARTESIAN_POINT ( 'NONE',  ( 0.000000000000000000, 0.000000000000000000, 125.0000000000000000 ) ) ;
#30 = APPROVAL_DATE_TIME ( #187, #120 ) ;
#31 = DIRECTION ( 'NONE',  ( 1.000000000000000000, 0.000000000000000000, 0.000000000000000000 ) ) ;
#32 = DIRECTION ( 'NONE',  ( 0.000000000000000000, 0.000000000000000000, 1.000000000000000000 ) ) ;
#33 = EDGE_CURVE ( 'NONE', #116, #97, #87, .T. ) ;
#34 = APPLICATION_PROTOCOL_DEFINITION ( 'international standard', 'config_control_design', 1994, #155 ) ;
#35 = APPROVAL_PERSON_ORGANIZATION ( #147, #73, #28 ) ;
#36 = DIRECTION ( 'NONE',  ( 0.000000000000000000, 0.000000000000000000, 1.000000000000000000 ) ) ;
#37 = APPROVAL_DATE_TIME ( #56, #234 ) ;
#38 = DATE_AND_TIME ( #61, #176 ) ;
#39 = UNCERTAINTY_MEASURE_WITH_UNIT (LENGTH_MEASURE( 1.000000000000000082E-05 ), #129, 'distance_accuracy_value', 'NONE');
#40 = ADVANCED_FACE ( 'NONE', ( #70 ), #95, .T. ) ;
#41 = PERSON ( 'NEURÈENÝ', 'NEURÈENÝ', 'NEURÈENÝ', ('NEURÈENÝ'), ('NEURÈENÝ'), ('NEURÈENÝ') ) ;
#42 = EDGE_LOOP ( 'NONE', ( #1, #24 ) ) ;
#43 = ORIENTED_EDGE ( 'NONE', *, *, #164, .T. ) ;
#44 = EDGE_LOOP ( 'NONE', ( #4, #84, #121, #156 ) ) ;
#45 = DIRECTION ( 'NONE',  ( 0.000000000000000000, 0.000000000000000000, 1.000000000000000000 ) ) ;
#46 = PERSON_AND_ORGANIZATION ( #41, #253 ) ;
#47 = SHAPE_DEFINITION_REPRESENTATION ( #105, #251 ) ;
#48 = DIRECTION ( 'NONE',  ( -0.000000000000000000, -0.000000000000000000, -1.000000000000000000 ) ) ;
#49 = CARTESIAN_POINT ( 'NONE',  ( 0.000000000000000000, 0.000000000000000000, 3.000000000000000000 ) ) ;
#50 = CYLINDRICAL_SURFACE ( 'NONE', #214, 1.750000000000000000 ) ;
#51 = DATE_AND_TIME ( #75, #232 ) ;
#52 = DIRECTION ( 'NONE',  ( 0.000000000000000000, 0.000000000000000000, 1.000000000000000000 ) ) ;
#53 = CARTESIAN_POINT ( 'NONE',  ( 0.000000000000000000, 0.000000000000000000, 125.0000000000000000 ) ) ;
#54 = COORDINATED_UNIVERSAL_TIME_OFFSET ( 1, 0, .AHEAD. ) ;
#55 = DIRECTION ( 'NONE',  ( 1.000000000000000000, 0.000000000000000000, 0.000000000000000000 ) ) ;
#56 = DATE_AND_TIME ( #236, #142 ) ;
#57 = CIRCLE ( 'NONE', #230, 3.500000000000000000 ) ;
#58 = CIRCLE ( 'NONE', #26, 1.750000000000000000 ) ;
#59 = VECTOR ( 'NONE', #89, 1000.000000000000000 ) ;
#60 = FACE_OUTER_BOUND ( 'NONE', #102, .T. ) ;
#61 = CALENDAR_DATE ( 2023, 12, 2 ) ;
#62 = ADVANCED_FACE ( 'NONE', ( #108 ), #50, .T. ) ;
#63 = CC_DESIGN_APPROVAL ( #234, ( #136 ) ) ;
#64 = CC_DESIGN_DATE_AND_TIME_ASSIGNMENT ( #51, #127, ( #96 ) ) ;
#65 = VERTEX_POINT ( 'NONE', #207 ) ;
#66 = EDGE_CURVE ( 'NONE', #235, #177, #77, .T. ) ;
#67 = EDGE_CURVE ( 'NONE', #116, #65, #27, .T. ) ;
#68 = CYLINDRICAL_SURFACE ( 'NONE', #79, 1.750000000000000000 ) ;
#69 = DIRECTION ( 'NONE',  ( 1.000000000000000000, 0.000000000000000000, 0.000000000000000000 ) ) ;
#70 = FACE_OUTER_BOUND ( 'NONE', #200, .T. ) ;
#71 = PERSON_AND_ORGANIZATION_ROLE ( 'creator' ) ;
#72 = DIRECTION ( 'NONE',  ( 0.000000000000000000, 0.000000000000000000, 1.000000000000000000 ) ) ;
#73 = APPROVAL ( #17, 'NEURÈENÝ' ) ;
#74 = CARTESIAN_POINT ( 'NONE',  ( 0.000000000000000000, 0.000000000000000000, 3.000000000000000000 ) ) ;
#75 = CALENDAR_DATE ( 2023, 12, 2 ) ;
#76 = AXIS2_PLACEMENT_3D ( 'NONE', #74, #45, #94 ) ;
#77 = CIRCLE ( 'NONE', #76, 3.500000000000000000 ) ;
#78 = EDGE_CURVE ( 'NONE', #97, #157, #228, .T. ) ;
#79 = AXIS2_PLACEMENT_3D ( 'NONE', #148, #227, #126 ) ;
#80 = ORIENTED_EDGE ( 'NONE', *, *, #33, .F. ) ;
#81 = COORDINATED_UNIVERSAL_TIME_OFFSET ( 1, 0, .AHEAD. ) ;
#82 = CYLINDRICAL_SURFACE ( 'NONE', #194, 3.500000000000000000 ) ;
#83 = ADVANCED_FACE ( 'NONE', ( #186 ), #68, .T. ) ;
#84 = ORIENTED_EDGE ( 'NONE', *, *, #66, .F. ) ;
#85 = DIRECTION ( 'NONE',  ( 1.000000000000000000, 0.000000000000000000, 0.000000000000000000 ) ) ;
#86 = ORIENTED_EDGE ( 'NONE', *, *, #164, .F. ) ;
#87 = CIRCLE ( 'NONE', #237, 1.750000000000000000 ) ;
#88 = PRODUCT_DEFINITION_FORMATION_WITH_SPECIFIED_SOURCE ( 'LIBOVOLNÝ', '', #144, .NOT_KNOWN. ) ;
#89 = DIRECTION ( 'NONE',  ( -0.000000000000000000, -0.000000000000000000, -1.000000000000000000 ) ) ;
#90 = LINE ( 'NONE', #223, #174 ) ;
#91 = DIRECTION ( 'NONE',  ( -0.000000000000000000, -0.000000000000000000, -1.000000000000000000 ) ) ;
#92 = APPROVAL_ROLE ( '' ) ;
#93 = DIRECTION ( 'NONE',  ( 0.000000000000000000, 0.000000000000000000, 1.000000000000000000 ) ) ;
#94 = DIRECTION ( 'NONE',  ( 1.000000000000000000, 0.000000000000000000, 0.000000000000000000 ) ) ;
#95 = PLANE ( 'NONE',  #114 ) ;
#96 = SECURITY_CLASSIFICATION ( '', '', #183 ) ;
#97 = VERTEX_POINT ( 'NONE', #171 ) ;
#98 = ORIENTED_EDGE ( 'NONE', *, *, #21, .T. ) ;
#99 = DESIGN_CONTEXT ( 'detailed design', #155, 'design' ) ;
#100 = ORIENTED_EDGE ( 'NONE', *, *, #78, .T. ) ;
#101 = DIRECTION ( 'NONE',  ( 0.000000000000000000, 0.000000000000000000, 1.000000000000000000 ) ) ;
#102 = EDGE_LOOP ( 'NONE', ( #199, #180 ) ) ;
#103 = CARTESIAN_POINT ( 'NONE',  ( 0.000000000000000000, 0.000000000000000000, 0.000000000000000000 ) ) ;
#104 = APPROVAL_ROLE ( '' ) ;
#105 = PRODUCT_DEFINITION_SHAPE ( 'NONE', 'NONE',  #136 ) ;
#106 = LINE ( 'NONE', #205, #252 ) ;
#107 = PERSON_AND_ORGANIZATION ( #41, #253 ) ;
#108 = FACE_OUTER_BOUND ( 'NONE', #5, .T. ) ;
#109 = MECHANICAL_CONTEXT ( 'NONE', #12, 'mechanical' ) ;
#110 = DIRECTION ( 'NONE',  ( 1.000000000000000000, 0.000000000000000000, -0.000000000000000000 ) ) ;
#111 = APPROVAL_PERSON_ORGANIZATION ( #46, #234, #104 ) ;
#112 = DIRECTION ( 'NONE',  ( 1.000000000000000000, 0.000000000000000000, 0.000000000000000000 ) ) ;
#113 = PERSON_AND_ORGANIZATION ( #41, #253 ) ;
#114 = AXIS2_PLACEMENT_3D ( 'NONE', #128, #36, #184 ) ;
#115 = EDGE_CURVE ( 'NONE', #157, #65, #173, .T. ) ;
#116 = VERTEX_POINT ( 'NONE', #250 ) ;
#117 = CLOSED_SHELL ( 'NONE', ( #83, #226, #18, #254, #175, #62, #40 ) ) ;
#118 = AXIS2_PLACEMENT_3D ( 'NONE', #249, #25, #110 ) ;
#119 = CARTESIAN_POINT ( 'NONE',  ( 0.000000000000000000, 0.000000000000000000, 3.000000000000000000 ) ) ;
#120 = APPROVAL ( #165, 'NEURÈENÝ' ) ;
#121 = ORIENTED_EDGE ( 'NONE', *, *, #137, .T. ) ;
#122 = CARTESIAN_POINT ( 'NONE',  ( 1.750000000000000000, 2.143131898507867804E-16, 125.0000000000000000 ) ) ;
#123 = APPROVAL_STATUS ( 'not_yet_approved' ) ;
#124 = FACE_OUTER_BOUND ( 'NONE', #22, .T. ) ;
#125 = EDGE_CURVE ( 'NONE', #201, #238, #233, .T. ) ;
#126 = DIRECTION ( 'NONE',  ( -1.000000000000000000, 0.000000000000000000, 0.000000000000000000 ) ) ;
#127 = DATE_TIME_ROLE ( 'classification_date' ) ;
#128 = CARTESIAN_POINT ( 'NONE',  ( 0.000000000000000000, 0.000000000000000000, 125.0000000000000000 ) ) ;
#129 =( LENGTH_UNIT ( ) NAMED_UNIT ( * ) SI_UNIT ( .MILLI., .METRE. ) );
#130 = CARTESIAN_POINT ( 'NONE',  ( 3.500000000000000000, 4.286263797015736595E-16, 3.000000000000000000 ) ) ;
#131 = LOCAL_TIME ( 13, 10, 58.00000000000000000, #206 ) ;
#132 = DATE_TIME_ROLE ( 'creation_date' ) ;
#133 = PLANE ( 'NONE',  #209 ) ;
#134 =( NAMED_UNIT ( * ) PLANE_ANGLE_UNIT ( ) SI_UNIT ( $, .RADIAN. ) );
#135 = CC_DESIGN_PERSON_AND_ORGANIZATION_ASSIGNMENT ( #107, #71, ( #88 ) ) ;
#136 = PRODUCT_DEFINITION ( 'NEZNÁMÝ', '', #88, #99 ) ;
#137 = EDGE_CURVE ( 'NONE', #235, #238, #106, .T. ) ;
#138 = CIRCLE ( 'NONE', #139, 1.750000000000000000 ) ;
#139 = AXIS2_PLACEMENT_3D ( 'NONE', #53, #32, #55 ) ;
#140 = FACE_OUTER_BOUND ( 'NONE', #44, .T. ) ;
#141 = ORIENTED_EDGE ( 'NONE', *, *, #67, .T. ) ;
#142 = LOCAL_TIME ( 13, 10, 58.00000000000000000, #81 ) ;
#143 = ORIENTED_EDGE ( 'NONE', *, *, #137, .F. ) ;
#144 = PRODUCT ( '5cfb', '5cfb', '', ( #109 ) ) ;
#145 = DIRECTION ( 'NONE',  ( 0.000000000000000000, 0.000000000000000000, 1.000000000000000000 ) ) ;
#146 = CARTESIAN_POINT ( 'NONE',  ( 0.000000000000000000, 0.000000000000000000, 3.000000000000000000 ) ) ;
#147 = PERSON_AND_ORGANIZATION ( #41, #253 ) ;
#148 = CARTESIAN_POINT ( 'NONE',  ( 0.000000000000000000, 0.000000000000000000, 125.0000000000000000 ) ) ;
#149 = PERSON_AND_ORGANIZATION_ROLE ( 'design_owner' ) ;
#150 = CC_DESIGN_PERSON_AND_ORGANIZATION_ASSIGNMENT ( #113, #224, ( #96 ) ) ;
#151 = CARTESIAN_POINT ( 'NONE',  ( 0.000000000000000000, 0.000000000000000000, 3.000000000000000000 ) ) ;
#152 = CARTESIAN_POINT ( 'NONE',  ( -3.500000000000000000, 0.000000000000000000, 3.000000000000000000 ) ) ;
#153 = CC_DESIGN_SECURITY_CLASSIFICATION ( #96, ( #88 ) ) ;
#154 = LOCAL_TIME ( 13, 10, 58.00000000000000000, #229 ) ;
#155 = APPLICATION_CONTEXT ( 'configuration controlled 3d designs of mechanical parts and assemblies' ) ;
#156 = ORIENTED_EDGE ( 'NONE', *, *, #198, .T. ) ;
#157 = VERTEX_POINT ( 'NONE', #167 ) ;
#158 = CC_DESIGN_PERSON_AND_ORGANIZATION_ASSIGNMENT ( #212, #185, ( #88 ) ) ;
#159 = ORIENTED_EDGE ( 'NONE', *, *, #125, .T. ) ;
#160 = CARTESIAN_POINT ( 'NONE',  ( 0.000000000000000000, 0.000000000000000000, 3.000000000000000000 ) ) ;
#161 = AXIS2_PLACEMENT_3D ( 'NONE', #245, #246, #112 ) ;
#162 = ORIENTED_EDGE ( 'NONE', *, *, #125, .F. ) ;
#163 = CARTESIAN_POINT ( 'NONE',  ( 0.000000000000000000, 0.000000000000000000, 3.000000000000000000 ) ) ;
#164 = EDGE_CURVE ( 'NONE', #97, #116, #138, .T. ) ;
#165 = APPROVAL_STATUS ( 'not_yet_approved' ) ;
#166 = DIRECTION ( 'NONE',  ( -1.000000000000000000, 0.000000000000000000, 0.000000000000000000 ) ) ;
#167 = CARTESIAN_POINT ( 'NONE',  ( -1.750000000000000000, 0.000000000000000000, 3.000000000000000000 ) ) ;
#168 = PERSON_AND_ORGANIZATION ( #41, #253 ) ;
#169 = DIRECTION ( 'NONE',  ( 1.000000000000000000, 0.000000000000000000, -0.000000000000000000 ) ) ;
#170 = PLANE ( 'NONE',  #118 ) ;
#171 = CARTESIAN_POINT ( 'NONE',  ( -1.750000000000000000, 0.000000000000000000, 125.0000000000000000 ) ) ;
#172 = CALENDAR_DATE ( 2023, 12, 2 ) ;
#173 = CIRCLE ( 'NONE', #215, 1.750000000000000000 ) ;
#174 = VECTOR ( 'NONE', #48, 1000.000000000000000 ) ;
#175 = ADVANCED_FACE ( 'NONE', ( #182 ), #170, .F. ) ;
#176 = LOCAL_TIME ( 13, 10, 58.00000000000000000, #190 ) ;
#177 = VERTEX_POINT ( 'NONE', #130 ) ;
#178 = CARTESIAN_POINT ( 'NONE',  ( 0.000000000000000000, 0.000000000000000000, 125.0000000000000000 ) ) ;
#179 = ORIENTED_EDGE ( 'NONE', *, *, #218, .T. ) ;
#180 = ORIENTED_EDGE ( 'NONE', *, *, #217, .T. ) ;
#181 = CC_DESIGN_PERSON_AND_ORGANIZATION_ASSIGNMENT ( #248, #149, ( #144 ) ) ;
#182 = FACE_OUTER_BOUND ( 'NONE', #216, .T. ) ;
#183 = SECURITY_CLASSIFICATION_LEVEL ( 'unclassified' ) ;
#184 = DIRECTION ( 'NONE',  ( 1.000000000000000000, 0.000000000000000000, -0.000000000000000000 ) ) ;
#185 = PERSON_AND_ORGANIZATION_ROLE ( 'design_supplier' ) ;
#186 = FACE_OUTER_BOUND ( 'NONE', #219, .T. ) ;
#187 = DATE_AND_TIME ( #244, #131 ) ;
#188 = DIRECTION ( 'NONE',  ( 0.000000000000000000, 0.000000000000000000, 1.000000000000000000 ) ) ;
#189 = DIRECTION ( 'NONE',  ( -0.000000000000000000, -0.000000000000000000, -1.000000000000000000 ) ) ;
#190 = COORDINATED_UNIVERSAL_TIME_OFFSET ( 1, 0, .AHEAD. ) ;
#191 = APPLICATION_PROTOCOL_DEFINITION ( 'international standard', 'config_control_design', 1994, #12 ) ;
#192 = CC_DESIGN_PERSON_AND_ORGANIZATION_ASSIGNMENT ( #168, #204, ( #136 ) ) ;
#193 = AXIS2_PLACEMENT_3D ( 'NONE', #146, #10, #166 ) ;
#194 = AXIS2_PLACEMENT_3D ( 'NONE', #119, #239, #23 ) ;
#195 =( GEOMETRIC_REPRESENTATION_CONTEXT ( 3 ) GLOBAL_UNCERTAINTY_ASSIGNED_CONTEXT ( ( #39 ) ) GLOBAL_UNIT_ASSIGNED_CONTEXT ( ( #129, #134, #11 ) ) REPRESENTATION_CONTEXT ( 'NONE', 'WORKASPACE' ) );
#196 = ORIENTED_EDGE ( 'NONE', *, *, #33, .T. ) ;
#197 = ORIENTED_EDGE ( 'NONE', *, *, #198, .F. ) ;
#198 = EDGE_CURVE ( 'NONE', #238, #201, #57, .T. ) ;
#199 = ORIENTED_EDGE ( 'NONE', *, *, #66, .T. ) ;
#200 = EDGE_LOOP ( 'NONE', ( #43, #196 ) ) ;
#201 = VERTEX_POINT ( 'NONE', #8 ) ;
#202 = DIRECTION ( 'NONE',  ( -1.000000000000000000, 0.000000000000000000, 0.000000000000000000 ) ) ;
#203 = CYLINDRICAL_SURFACE ( 'NONE', #193, 3.500000000000000000 ) ;
#204 = PERSON_AND_ORGANIZATION_ROLE ( 'creator' ) ;
#205 = CARTESIAN_POINT ( 'NONE',  ( -3.500000000000000000, 0.000000000000000000, 3.000000000000000000 ) ) ;
#206 = COORDINATED_UNIVERSAL_TIME_OFFSET ( 1, 0, .AHEAD. ) ;
#207 = CARTESIAN_POINT ( 'NONE',  ( 1.750000000000000000, 2.143131898507867804E-16, 3.000000000000000000 ) ) ;
#208 = DIRECTION ( 'NONE',  ( 1.000000000000000000, 0.000000000000000000, 0.000000000000000000 ) ) ;
#209 = AXIS2_PLACEMENT_3D ( 'NONE', #49, #93, #169 ) ;
#210 = APPROVAL_DATE_TIME ( #38, #73 ) ;
#211 = CARTESIAN_POINT ( 'NONE',  ( -3.500000000000000000, 0.000000000000000000, 0.000000000000000000 ) ) ;
#212 = PERSON_AND_ORGANIZATION ( #41, #253 ) ;
#213 = MANIFOLD_SOLID_BREP ( 'Pøidat vysunutím3', #117 ) ;
#214 = AXIS2_PLACEMENT_3D ( 'NONE', #29, #222, #202 ) ;
#215 = AXIS2_PLACEMENT_3D ( 'NONE', #151, #188, #16 ) ;
#216 = EDGE_LOOP ( 'NONE', ( #197, #162 ) ) ;
#217 = EDGE_CURVE ( 'NONE', #177, #235, #241, .T. ) ;
#218 = EDGE_CURVE ( 'NONE', #177, #201, #90, .T. ) ;
#219 = EDGE_LOOP ( 'NONE', ( #80, #141, #98, #255 ) ) ;
#220 = VECTOR ( 'NONE', #189, 1000.000000000000000 ) ;
#221 = ORIENTED_EDGE ( 'NONE', *, *, #217, .F. ) ;
#222 = DIRECTION ( 'NONE',  ( -0.000000000000000000, -0.000000000000000000, -1.000000000000000000 ) ) ;
#223 = CARTESIAN_POINT ( 'NONE',  ( 3.500000000000000000, 4.286263797015736595E-16, 3.000000000000000000 ) ) ;
#224 = PERSON_AND_ORGANIZATION_ROLE ( 'classification_officer' ) ;
#225 = CARTESIAN_POINT ( 'NONE',  ( 0.000000000000000000, 0.000000000000000000, 0.000000000000000000 ) ) ;
#226 = ADVANCED_FACE ( 'NONE', ( #124 ), #203, .T. ) ;
#227 = DIRECTION ( 'NONE',  ( -0.000000000000000000, -0.000000000000000000, -1.000000000000000000 ) ) ;
#228 = LINE ( 'NONE', #243, #220 ) ;
#229 = COORDINATED_UNIVERSAL_TIME_OFFSET ( 1, 0, .AHEAD. ) ;
#230 = AXIS2_PLACEMENT_3D ( 'NONE', #103, #72, #208 ) ;
#231 = FACE_BOUND ( 'NONE', #42, .T. ) ;
#232 = LOCAL_TIME ( 13, 10, 58.00000000000000000, #54 ) ;
#233 = CIRCLE ( 'NONE', #161, 3.500000000000000000 ) ;
#234 = APPROVAL ( #123, 'NEURÈENÝ' ) ;
#235 = VERTEX_POINT ( 'NONE', #152 ) ;
#236 = CALENDAR_DATE ( 2023, 12, 2 ) ;
#237 = AXIS2_PLACEMENT_3D ( 'NONE', #178, #13, #15 ) ;
#238 = VERTEX_POINT ( 'NONE', #211 ) ;
#239 = DIRECTION ( 'NONE',  ( -0.000000000000000000, -0.000000000000000000, -1.000000000000000000 ) ) ;
#240 = ORIENTED_EDGE ( 'NONE', *, *, #115, .T. ) ;
#241 = CIRCLE ( 'NONE', #7, 3.500000000000000000 ) ;
#242 = PRODUCT_RELATED_PRODUCT_CATEGORY ( 'detail', '', ( #144 ) ) ;
#243 = CARTESIAN_POINT ( 'NONE',  ( -1.750000000000000000, 0.000000000000000000, 125.0000000000000000 ) ) ;
#244 = CALENDAR_DATE ( 2023, 12, 2 ) ;
#245 = CARTESIAN_POINT ( 'NONE',  ( 0.000000000000000000, 0.000000000000000000, 0.000000000000000000 ) ) ;
#246 = DIRECTION ( 'NONE',  ( 0.000000000000000000, 0.000000000000000000, 1.000000000000000000 ) ) ;
#247 = DATE_AND_TIME ( #172, #154 ) ;
#248 = PERSON_AND_ORGANIZATION ( #41, #253 ) ;
#249 = CARTESIAN_POINT ( 'NONE',  ( 0.000000000000000000, 0.000000000000000000, 0.000000000000000000 ) ) ;
#250 = CARTESIAN_POINT ( 'NONE',  ( 1.750000000000000000, 2.143131898507867804E-16, 125.0000000000000000 ) ) ;
#251 = ADVANCED_BREP_SHAPE_REPRESENTATION ( '5cfb', ( #213, #14 ), #195 ) ;
#252 = VECTOR ( 'NONE', #91, 1000.000000000000000 ) ;
#253 = ORGANIZATION ( 'NEURÈENÝ', 'NEURÈENÝ', '' ) ;
#254 = ADVANCED_FACE ( 'NONE', ( #231, #60 ), #133, .T. ) ;
#255 = ORIENTED_EDGE ( 'NONE', *, *, #78, .F. ) ;
ENDSEC;
END-ISO-10303-21;
