ISO-10303-21;
HEADER;
FILE_DESCRIPTION (( 'STEP AP203' ),
    '1' );
FILE_NAME ('ffe0.STEP',
    '2022-07-07T12:25:06',
    ( '' ),
    ( '' ),
    'SwSTEP 2.0',
    'SolidWorks 2019',
    '' );
FILE_SCHEMA (( 'CONFIG_CONTROL_DESIGN' ));
ENDSEC;

DATA;
#1 = CIRCLE ( 'NONE', #294, 5.500000000000000000 ) ;
#2 = ORIENTED_EDGE ( 'NONE', *, *, #249, .F. ) ;
#3 = ORIENTED_EDGE ( 'NONE', *, *, #254, .F. ) ;
#4 = DATE_AND_TIME ( #215, #146 ) ;
#5 = PERSON_AND_ORGANIZATION_ROLE ( 'classification_officer' ) ;
#6 = APPROVAL_DATE_TIME ( #288, #21 ) ;
#7 = EDGE_CURVE ( 'NONE', #49, #91, #282, .T. ) ;
#8 = DIRECTION ( 'NONE',  ( 0.000000000000000000, 0.000000000000000000, 1.000000000000000000 ) ) ;
#9 = APPLICATION_PROTOCOL_DEFINITION ( 'international standard', 'config_control_design', 1994, #225 ) ;
#10 = CARTESIAN_POINT ( 'NONE',  ( 0.000000000000000000, 0.000000000000000000, 5.000000000000000000 ) ) ;
#11 = DATE_AND_TIME ( #33, #287 ) ;
#12 = CARTESIAN_POINT ( 'NONE',  ( -5.699999999999999289, 6.980486755139912122E-16, 5.000000000000005329 ) ) ;
#13 = DIRECTION ( 'NONE',  ( -1.000000000000000000, 0.000000000000000000, 0.000000000000000000 ) ) ;
#14 = LINE ( 'NONE', #110, #258 ) ;
#15 = DIRECTION ( 'NONE',  ( -0.000000000000000000, -0.000000000000000000, -1.000000000000000000 ) ) ;
#16 = AXIS2_PLACEMENT_3D ( 'NONE', #272, #112, #247 ) ;
#17 = VECTOR ( 'NONE', #296, 1000.000000000000000 ) ;
#18 = EDGE_LOOP ( 'NONE', ( #139, #284 ) ) ;
#19 = ORIENTED_EDGE ( 'NONE', *, *, #158, .T. ) ;
#20 = CALENDAR_DATE ( 2022, 7, 7 ) ;
#21 = APPROVAL ( #237, 'NEURÈENÝ' ) ;
#22 = ORIENTED_EDGE ( 'NONE', *, *, #130, .T. ) ;
#23 = VECTOR ( 'NONE', #104, 1000.000000000000000 ) ;
#24 = ADVANCED_FACE ( 'NONE', ( #304 ), #140, .T. ) ;
#25 = VERTEX_POINT ( 'NONE', #68 ) ;
#26 = COORDINATED_UNIVERSAL_TIME_OFFSET ( 1, 0, .AHEAD. ) ;
#27 = PERSON_AND_ORGANIZATION ( #290, #61 ) ;
#28 = COORDINATED_UNIVERSAL_TIME_OFFSET ( 1, 0, .AHEAD. ) ;
#29 = APPROVAL ( #166, 'NEURÈENÝ' ) ;
#30 = AXIS2_PLACEMENT_3D ( 'NONE', #299, #301, #175 ) ;
#31 = CARTESIAN_POINT ( 'NONE',  ( 0.000000000000000000, 0.000000000000000000, 255.0000000000000000 ) ) ;
#32 = FACE_OUTER_BOUND ( 'NONE', #18, .T. ) ;
#33 = CALENDAR_DATE ( 2022, 7, 7 ) ;
#34 = DIRECTION ( 'NONE',  ( 1.000000000000000000, 0.000000000000000000, 0.000000000000000000 ) ) ;
#35 = CIRCLE ( 'NONE', #78, 5.500000000000000000 ) ;
#36 = DIRECTION ( 'NONE',  ( 1.000000000000000000, 0.000000000000000000, -0.000000000000000000 ) ) ;
#37 = CARTESIAN_POINT ( 'NONE',  ( 0.000000000000000000, 0.000000000000000000, 255.0000000000000000 ) ) ;
#38 = FACE_OUTER_BOUND ( 'NONE', #74, .T. ) ;
#39 = LINE ( 'NONE', #54, #127 ) ;
#40 = ADVANCED_BREP_SHAPE_REPRESENTATION ( 'ffe0', ( #87, #79 ), #48 ) ;
#41 = ADVANCED_FACE ( 'NONE', ( #229 ), #160, .T. ) ;
#42 = ORIENTED_EDGE ( 'NONE', *, *, #249, .T. ) ;
#43 = VERTEX_POINT ( 'NONE', #132 ) ;
#44 = DIRECTION ( 'NONE',  ( 1.000000000000000000, 0.000000000000000000, 0.000000000000000000 ) ) ;
#45 = EDGE_LOOP ( 'NONE', ( #3, #230, #114, #186 ) ) ;
#46 = DATE_AND_TIME ( #184, #193 ) ;
#47 = ADVANCED_FACE ( 'NONE', ( #38 ), #85, .T. ) ;
#48 =( GEOMETRIC_REPRESENTATION_CONTEXT ( 3 ) GLOBAL_UNCERTAINTY_ASSIGNED_CONTEXT ( ( #197 ) ) GLOBAL_UNIT_ASSIGNED_CONTEXT ( ( #241, #189, #101 ) ) REPRESENTATION_CONTEXT ( 'NONE', 'WORKASPACE' ) );
#49 = VERTEX_POINT ( 'NONE', #245 ) ;
#50 = AXIS2_PLACEMENT_3D ( 'NONE', #274, #270, #244 ) ;
#51 = ORIENTED_EDGE ( 'NONE', *, *, #52, .F. ) ;
#52 = EDGE_CURVE ( 'NONE', #92, #113, #133, .T. ) ;
#53 = CALENDAR_DATE ( 2022, 7, 7 ) ;
#54 = CARTESIAN_POINT ( 'NONE',  ( 8.000000000000000000, 9.797174393178825657E-16, 5.000000000000000000 ) ) ;
#55 = APPLICATION_PROTOCOL_DEFINITION ( 'international standard', 'config_control_design', 1994, #205 ) ;
#56 = AXIS2_PLACEMENT_3D ( 'NONE', #223, #15, #109 ) ;
#57 = DIRECTION ( 'NONE',  ( 0.000000000000000000, 0.000000000000000000, -1.000000000000000000 ) ) ;
#58 = DIRECTION ( 'NONE',  ( 0.000000000000000000, 0.000000000000000000, 1.000000000000000000 ) ) ;
#59 = CARTESIAN_POINT ( 'NONE',  ( 5.500000000000000000, 6.735557395310442023E-16, 255.0000000000000000 ) ) ;
#60 = FACE_OUTER_BOUND ( 'NONE', #45, .T. ) ;
#61 = ORGANIZATION ( 'NEURÈENÝ', 'NEURÈENÝ', '' ) ;
#62 = AXIS2_PLACEMENT_3D ( 'NONE', #199, #201, #36 ) ;
#63 = DIRECTION ( 'NONE',  ( -0.000000000000000000, -0.000000000000000000, -1.000000000000000000 ) ) ;
#64 = CARTESIAN_POINT ( 'NONE',  ( 0.000000000000000000, 0.000000000000000000, 5.200000000000009948 ) ) ;
#65 = ADVANCED_FACE ( 'NONE', ( #173 ), #152, .T. ) ;
#66 = CC_DESIGN_APPROVAL ( #21, ( #131 ) ) ;
#67 = AXIS2_PLACEMENT_3D ( 'NONE', #161, #255, #44 ) ;
#68 = CARTESIAN_POINT ( 'NONE',  ( -8.000000000000000000, 0.000000000000000000, 5.000000000000000000 ) ) ;
#69 = ORIENTED_EDGE ( 'NONE', *, *, #158, .F. ) ;
#70 = EDGE_CURVE ( 'NONE', #25, #43, #117, .T. ) ;
#71 = ORIENTED_EDGE ( 'NONE', *, *, #180, .T. ) ;
#72 = COORDINATED_UNIVERSAL_TIME_OFFSET ( 1, 0, .AHEAD. ) ;
#73 = AXIS2_PLACEMENT_3D ( 'NONE', #100, #122, #263 ) ;
#74 = EDGE_LOOP ( 'NONE', ( #144, #42, #212, #69 ) ) ;
#75 = CC_DESIGN_DATE_AND_TIME_ASSIGNMENT ( #11, #172, ( #131 ) ) ;
#76 = CARTESIAN_POINT ( 'NONE',  ( -5.500000000000000000, 0.000000000000000000, 5.200000000000009948 ) ) ;
#77 = CARTESIAN_POINT ( 'NONE',  ( -5.699999999999999289, 6.980486755139912122E-16, 5.200000000000009948 ) ) ;
#78 = AXIS2_PLACEMENT_3D ( 'NONE', #31, #291, #121 ) ;
#79 = AXIS2_PLACEMENT_3D ( 'NONE', #191, #196, #293 ) ;
#80 = CC_DESIGN_PERSON_AND_ORGANIZATION_ASSIGNMENT ( #145, #266, ( #131 ) ) ;
#81 = CIRCLE ( 'NONE', #183, 0.1999999999999996503 ) ;
#82 = CARTESIAN_POINT ( 'NONE',  ( 5.699999999999999289, 0.000000000000000000, 5.200000000000009948 ) ) ;
#83 = DIRECTION ( 'NONE',  ( 0.000000000000000000, 0.000000000000000000, 1.000000000000000000 ) ) ;
#84 = DIRECTION ( 'NONE',  ( 1.000000000000000000, 0.000000000000000000, -0.000000000000000000 ) ) ;
#85 = CYLINDRICAL_SURFACE ( 'NONE', #56, 8.000000000000000000 ) ;
#86 = AXIS2_PLACEMENT_3D ( 'NONE', #82, #123, #57 ) ;
#87 = MANIFOLD_SOLID_BREP ( 'Zaoblit1', #202 ) ;
#88 = PRODUCT_DEFINITION_FORMATION_WITH_SPECIFIED_SOURCE ( 'LIBOVOLNÝ', '', #136, .NOT_KNOWN. ) ;
#89 = AXIS2_PLACEMENT_3D ( 'NONE', #108, #198, #84 ) ;
#90 = ORIENTED_EDGE ( 'NONE', *, *, #7, .F. ) ;
#91 = VERTEX_POINT ( 'NONE', #156 ) ;
#92 = VERTEX_POINT ( 'NONE', #226 ) ;
#93 = DATE_TIME_ROLE ( 'classification_date' ) ;
#94 = EDGE_CURVE ( 'NONE', #43, #25, #188, .T. ) ;
#95 = CIRCLE ( 'NONE', #50, 5.500000000000000000 ) ;
#96 = SECURITY_CLASSIFICATION_LEVEL ( 'unclassified' ) ;
#97 = ORIENTED_EDGE ( 'NONE', *, *, #52, .T. ) ;
#98 = VERTEX_POINT ( 'NONE', #59 ) ;
#99 = CIRCLE ( 'NONE', #159, 5.500000000000000000 ) ;
#100 = CARTESIAN_POINT ( 'NONE',  ( 0.000000000000000000, 0.000000000000000000, 0.000000000000000000 ) ) ;
#101 =( NAMED_UNIT ( * ) SI_UNIT ( $, .STERADIAN. ) SOLID_ANGLE_UNIT ( ) );
#102 = CYLINDRICAL_SURFACE ( 'NONE', #195, 5.500000000000000000 ) ;
#103 = MECHANICAL_CONTEXT ( 'NONE', #205, 'mechanical' ) ;
#104 = DIRECTION ( 'NONE',  ( -0.000000000000000000, -0.000000000000000000, -1.000000000000000000 ) ) ;
#105 = EDGE_CURVE ( 'NONE', #279, #113, #81, .T. ) ;
#106 = PERSON_AND_ORGANIZATION ( #290, #61 ) ;
#107 = AXIS2_PLACEMENT_3D ( 'NONE', #194, #265, #34 ) ;
#108 = CARTESIAN_POINT ( 'NONE',  ( 0.000000000000000000, 0.000000000000000000, 0.000000000000000000 ) ) ;
#109 = DIRECTION ( 'NONE',  ( -1.000000000000000000, 0.000000000000000000, 0.000000000000000000 ) ) ;
#110 = CARTESIAN_POINT ( 'NONE',  ( 5.500000000000000000, 6.735557395310442023E-16, 255.0000000000000000 ) ) ;
#111 = EDGE_CURVE ( 'NONE', #307, #98, #95, .T. ) ;
#112 = DIRECTION ( 'NONE',  ( -0.000000000000000000, -0.000000000000000000, -1.000000000000000000 ) ) ;
#113 = VERTEX_POINT ( 'NONE', #12 ) ;
#114 = ORIENTED_EDGE ( 'NONE', *, *, #135, .T. ) ;
#115 = EDGE_LOOP ( 'NONE', ( #90, #302 ) ) ;
#116 = APPROVAL_ROLE ( '' ) ;
#117 = CIRCLE ( 'NONE', #30, 8.000000000000000000 ) ;
#118 = EDGE_LOOP ( 'NONE', ( #256, #187, #162, #22 ) ) ;
#119 = APPROVAL_STATUS ( 'not_yet_approved' ) ;
#120 = ORIENTED_EDGE ( 'NONE', *, *, #130, .F. ) ;
#121 = DIRECTION ( 'NONE',  ( 1.000000000000000000, 0.000000000000000000, 0.000000000000000000 ) ) ;
#122 = DIRECTION ( 'NONE',  ( 0.000000000000000000, 0.000000000000000000, 1.000000000000000000 ) ) ;
#123 = DIRECTION ( 'NONE',  ( 0.000000000000000000, -1.000000000000000000, 0.000000000000000000 ) ) ;
#124 = DIRECTION ( 'NONE',  ( 0.000000000000000000, 0.000000000000000000, 1.000000000000000000 ) ) ;
#125 = CARTESIAN_POINT ( 'NONE',  ( -5.500000000000000000, 0.000000000000000000, 255.0000000000000000 ) ) ;
#126 = CARTESIAN_POINT ( 'NONE',  ( 0.000000000000000000, 0.000000000000000000, 5.000000000000000000 ) ) ;
#127 = VECTOR ( 'NONE', #240, 1000.000000000000000 ) ;
#128 = CARTESIAN_POINT ( 'NONE',  ( 0.000000000000000000, 0.000000000000000000, 5.000000000000000000 ) ) ;
#129 = FACE_OUTER_BOUND ( 'NONE', #260, .T. ) ;
#130 = EDGE_CURVE ( 'NONE', #279, #142, #1, .T. ) ;
#131 = PRODUCT_DEFINITION ( 'NEZNÁMÝ', '', #88, #268 ) ;
#132 = CARTESIAN_POINT ( 'NONE',  ( 8.000000000000000000, 9.797174393178825657E-16, 5.000000000000000000 ) ) ;
#133 = CIRCLE ( 'NONE', #16, 5.699999999999999289 ) ;
#134 = CC_DESIGN_DATE_AND_TIME_ASSIGNMENT ( #46, #93, ( #220 ) ) ;
#135 = EDGE_CURVE ( 'NONE', #142, #279, #99, .T. ) ;
#136 = PRODUCT ( 'ffe0', 'ffe0', '', ( #103 ) ) ;
#137 = AXIS2_PLACEMENT_3D ( 'NONE', #297, #83, #269 ) ;
#138 = CC_DESIGN_PERSON_AND_ORGANIZATION_ASSIGNMENT ( #218, #167, ( #136 ) ) ;
#139 = ORIENTED_EDGE ( 'NONE', *, *, #70, .T. ) ;
#140 = CYLINDRICAL_SURFACE ( 'NONE', #164, 5.500000000000000000 ) ;
#141 = PERSON_AND_ORGANIZATION ( #290, #61 ) ;
#142 = VERTEX_POINT ( 'NONE', #295 ) ;
#143 = PERSON_AND_ORGANIZATION ( #290, #61 ) ;
#144 = ORIENTED_EDGE ( 'NONE', *, *, #94, .F. ) ;
#145 = PERSON_AND_ORGANIZATION ( #290, #61 ) ;
#146 = LOCAL_TIME ( 14, 25, 6.000000000000000000, #26 ) ;
#147 = DIRECTION ( 'NONE',  ( -1.000000000000000000, 1.224646799147353454E-16, 0.000000000000000000 ) ) ;
#148 = AXIS2_PLACEMENT_3D ( 'NONE', #128, #63, #13 ) ;
#149 = EDGE_CURVE ( 'NONE', #113, #92, #216, .T. ) ;
#150 = DIRECTION ( 'NONE',  ( 1.000000000000000000, 0.000000000000000000, 0.000000000000000000 ) ) ;
#151 = PLANE ( 'NONE',  #89 ) ;
#152 = PLANE ( 'NONE',  #62 ) ;
#153 = FACE_OUTER_BOUND ( 'NONE', #206, .T. ) ;
#154 = APPROVAL_PERSON_ORGANIZATION ( #207, #275, #116 ) ;
#155 = CIRCLE ( 'NONE', #73, 8.000000000000000000 ) ;
#156 = CARTESIAN_POINT ( 'NONE',  ( 8.000000000000000000, 9.797174393178825657E-16, 0.000000000000000000 ) ) ;
#157 = DIRECTION ( 'NONE',  ( -0.000000000000000000, -0.000000000000000000, -1.000000000000000000 ) ) ;
#158 = EDGE_CURVE ( 'NONE', #25, #49, #192, .T. ) ;
#159 = AXIS2_PLACEMENT_3D ( 'NONE', #64, #124, #219 ) ;
#160 = CYLINDRICAL_SURFACE ( 'NONE', #148, 8.000000000000000000 ) ;
#161 = CARTESIAN_POINT ( 'NONE',  ( 0.000000000000000000, 0.000000000000000000, 0.000000000000000000 ) ) ;
#162 = ORIENTED_EDGE ( 'NONE', *, *, #305, .T. ) ;
#163 = CC_DESIGN_APPROVAL ( #29, ( #88 ) ) ;
#164 = AXIS2_PLACEMENT_3D ( 'NONE', #231, #181, #280 ) ;
#165 = ORIENTED_EDGE ( 'NONE', *, *, #7, .T. ) ;
#166 = APPROVAL_STATUS ( 'not_yet_approved' ) ;
#167 = PERSON_AND_ORGANIZATION_ROLE ( 'design_owner' ) ;
#168 = ADVANCED_FACE ( 'NONE', ( #60 ), #102, .T. ) ;
#169 = DIRECTION ( 'NONE',  ( 1.000000000000000000, 0.000000000000000000, 0.000000000000000000 ) ) ;
#170 = APPROVAL_ROLE ( '' ) ;
#171 = DIRECTION ( 'NONE',  ( 0.000000000000000000, 0.000000000000000000, 1.000000000000000000 ) ) ;
#172 = DATE_TIME_ROLE ( 'creation_date' ) ;
#173 = FACE_OUTER_BOUND ( 'NONE', #277, .T. ) ;
#174 = DIRECTION ( 'NONE',  ( 1.000000000000000000, 0.000000000000000000, 0.000000000000000000 ) ) ;
#175 = DIRECTION ( 'NONE',  ( 1.000000000000000000, 0.000000000000000000, 0.000000000000000000 ) ) ;
#176 = DIRECTION ( 'NONE',  ( -0.000000000000000000, -0.000000000000000000, -1.000000000000000000 ) ) ;
#177 = TOROIDAL_SURFACE ( 'NONE', #107, 5.699999999999999289, 0.2000000000000000111 ) ;
#178 = TOROIDAL_SURFACE ( 'NONE', #222, 5.699999999999999289, 0.2000000000000000111 ) ;
#179 = EDGE_LOOP ( 'NONE', ( #97, #283 ) ) ;
#180 = EDGE_CURVE ( 'NONE', #142, #92, #235, .T. ) ;
#181 = DIRECTION ( 'NONE',  ( -0.000000000000000000, -0.000000000000000000, -1.000000000000000000 ) ) ;
#182 = ORIENTED_EDGE ( 'NONE', *, *, #180, .F. ) ;
#183 = AXIS2_PLACEMENT_3D ( 'NONE', #77, #242, #147 ) ;
#184 = CALENDAR_DATE ( 2022, 7, 7 ) ;
#185 = ADVANCED_FACE ( 'NONE', ( #129 ), #177, .F. ) ;
#186 = ORIENTED_EDGE ( 'NONE', *, *, #305, .F. ) ;
#187 = ORIENTED_EDGE ( 'NONE', *, *, #111, .F. ) ;
#188 = CIRCLE ( 'NONE', #137, 8.000000000000000000 ) ;
#189 =( NAMED_UNIT ( * ) PLANE_ANGLE_UNIT ( ) SI_UNIT ( $, .RADIAN. ) );
#190 = ADVANCED_FACE ( 'NONE', ( #153 ), #178, .F. ) ;
#191 = CARTESIAN_POINT ( 'NONE',  ( 0.000000000000000000, 0.000000000000000000, 0.000000000000000000 ) ) ;
#192 = LINE ( 'NONE', #221, #23 ) ;
#193 = LOCAL_TIME ( 14, 25, 6.000000000000000000, #262 ) ;
#194 = CARTESIAN_POINT ( 'NONE',  ( 0.000000000000000000, 0.000000000000000000, 5.200000000000009948 ) ) ;
#195 = AXIS2_PLACEMENT_3D ( 'NONE', #37, #157, #300 ) ;
#196 = DIRECTION ( 'NONE',  ( 0.000000000000000000, 0.000000000000000000, 1.000000000000000000 ) ) ;
#197 = UNCERTAINTY_MEASURE_WITH_UNIT (LENGTH_MEASURE( 1.000000000000000082E-05 ), #241, 'distance_accuracy_value', 'NONE');
#198 = DIRECTION ( 'NONE',  ( 0.000000000000000000, 0.000000000000000000, 1.000000000000000000 ) ) ;
#199 = CARTESIAN_POINT ( 'NONE',  ( 0.000000000000000000, 0.000000000000000000, 255.0000000000000000 ) ) ;
#200 = DIRECTION ( 'NONE',  ( -0.000000000000000000, -0.000000000000000000, -1.000000000000000000 ) ) ;
#201 = DIRECTION ( 'NONE',  ( 0.000000000000000000, 0.000000000000000000, 1.000000000000000000 ) ) ;
#202 = CLOSED_SHELL ( 'NONE', ( #190, #168, #47, #41, #203, #210, #24, #65, #185 ) ) ;
#203 = ADVANCED_FACE ( 'NONE', ( #248, #32 ), #292, .T. ) ;
#204 = ORIENTED_EDGE ( 'NONE', *, *, #105, .F. ) ;
#205 = APPLICATION_CONTEXT ( 'configuration controlled 3d designs of mechanical parts and assemblies' ) ;
#206 = EDGE_LOOP ( 'NONE', ( #120, #211, #51, #182 ) ) ;
#207 = PERSON_AND_ORGANIZATION ( #290, #61 ) ;
#208 = DATE_AND_TIME ( #20, #233 ) ;
#209 = CC_DESIGN_SECURITY_CLASSIFICATION ( #220, ( #88 ) ) ;
#210 = ADVANCED_FACE ( 'NONE', ( #224 ), #151, .F. ) ;
#211 = ORIENTED_EDGE ( 'NONE', *, *, #105, .T. ) ;
#212 = ORIENTED_EDGE ( 'NONE', *, *, #281, .T. ) ;
#213 = PERSON_AND_ORGANIZATION_ROLE ( 'creator' ) ;
#214 = EDGE_CURVE ( 'NONE', #98, #142, #14, .T. ) ;
#215 = CALENDAR_DATE ( 2022, 7, 7 ) ;
#216 = CIRCLE ( 'NONE', #228, 5.699999999999999289 ) ;
#217 = CARTESIAN_POINT ( 'NONE',  ( -5.500000000000000000, 0.000000000000000000, 255.0000000000000000 ) ) ;
#218 = PERSON_AND_ORGANIZATION ( #290, #61 ) ;
#219 = DIRECTION ( 'NONE',  ( 1.000000000000000000, 0.000000000000000000, 0.000000000000000000 ) ) ;
#220 = SECURITY_CLASSIFICATION ( '', '', #96 ) ;
#221 = CARTESIAN_POINT ( 'NONE',  ( -8.000000000000000000, 0.000000000000000000, 5.000000000000000000 ) ) ;
#222 = AXIS2_PLACEMENT_3D ( 'NONE', #298, #8, #169 ) ;
#223 = CARTESIAN_POINT ( 'NONE',  ( 0.000000000000000000, 0.000000000000000000, 5.000000000000000000 ) ) ;
#224 = FACE_OUTER_BOUND ( 'NONE', #115, .T. ) ;
#225 = APPLICATION_CONTEXT ( 'configuration controlled 3d designs of mechanical parts and assemblies' ) ;
#226 = CARTESIAN_POINT ( 'NONE',  ( 5.699999999999999289, 0.000000000000000000, 5.000000000000005329 ) ) ;
#227 = PRODUCT_RELATED_PRODUCT_CATEGORY ( 'detail', '', ( #136 ) ) ;
#228 = AXIS2_PLACEMENT_3D ( 'NONE', #10, #200, #174 ) ;
#229 = FACE_OUTER_BOUND ( 'NONE', #303, .T. ) ;
#230 = ORIENTED_EDGE ( 'NONE', *, *, #214, .T. ) ;
#231 = CARTESIAN_POINT ( 'NONE',  ( 0.000000000000000000, 0.000000000000000000, 255.0000000000000000 ) ) ;
#232 = ORIENTED_EDGE ( 'NONE', *, *, #111, .T. ) ;
#233 = LOCAL_TIME ( 14, 25, 6.000000000000000000, #72 ) ;
#234 = SHAPE_DEFINITION_REPRESENTATION ( #278, #40 ) ;
#235 = CIRCLE ( 'NONE', #86, 0.1999999999999996503 ) ;
#236 = ORIENTED_EDGE ( 'NONE', *, *, #135, .F. ) ;
#237 = APPROVAL_STATUS ( 'not_yet_approved' ) ;
#238 = APPROVAL_DATE_TIME ( #4, #29 ) ;
#239 = PERSON_AND_ORGANIZATION ( #290, #61 ) ;
#240 = DIRECTION ( 'NONE',  ( -0.000000000000000000, -0.000000000000000000, -1.000000000000000000 ) ) ;
#241 =( LENGTH_UNIT ( ) NAMED_UNIT ( * ) SI_UNIT ( .MILLI., .METRE. ) );
#242 = DIRECTION ( 'NONE',  ( 1.224646799147353207E-16, 1.000000000000000000, -0.000000000000000000 ) ) ;
#243 = COORDINATED_UNIVERSAL_TIME_OFFSET ( 1, 0, .AHEAD. ) ;
#244 = DIRECTION ( 'NONE',  ( 1.000000000000000000, 0.000000000000000000, 0.000000000000000000 ) ) ;
#245 = CARTESIAN_POINT ( 'NONE',  ( -8.000000000000000000, 0.000000000000000000, 0.000000000000000000 ) ) ;
#246 = CARTESIAN_POINT ( 'NONE',  ( 0.000000000000000000, 0.000000000000000000, 5.200000000000009948 ) ) ;
#247 = DIRECTION ( 'NONE',  ( 1.000000000000000000, 0.000000000000000000, 0.000000000000000000 ) ) ;
#248 = FACE_BOUND ( 'NONE', #179, .T. ) ;
#249 = EDGE_CURVE ( 'NONE', #43, #91, #39, .T. ) ;
#250 = LOCAL_TIME ( 14, 25, 6.000000000000000000, #28 ) ;
#251 = ORIENTED_EDGE ( 'NONE', *, *, #149, .F. ) ;
#252 = AXIS2_PLACEMENT_3D ( 'NONE', #126, #171, #267 ) ;
#253 = ORIENTED_EDGE ( 'NONE', *, *, #254, .T. ) ;
#254 = EDGE_CURVE ( 'NONE', #98, #307, #35, .T. ) ;
#255 = DIRECTION ( 'NONE',  ( 0.000000000000000000, 0.000000000000000000, 1.000000000000000000 ) ) ;
#256 = ORIENTED_EDGE ( 'NONE', *, *, #214, .F. ) ;
#257 = PERSON_AND_ORGANIZATION_ROLE ( 'design_supplier' ) ;
#258 = VECTOR ( 'NONE', #176, 1000.000000000000000 ) ;
#259 = CC_DESIGN_PERSON_AND_ORGANIZATION_ASSIGNMENT ( #143, #213, ( #88 ) ) ;
#260 = EDGE_LOOP ( 'NONE', ( #204, #236, #71, #251 ) ) ;
#261 = APPROVAL_ROLE ( '' ) ;
#262 = COORDINATED_UNIVERSAL_TIME_OFFSET ( 1, 0, .AHEAD. ) ;
#263 = DIRECTION ( 'NONE',  ( 1.000000000000000000, 0.000000000000000000, 0.000000000000000000 ) ) ;
#264 = CC_DESIGN_APPROVAL ( #275, ( #220 ) ) ;
#265 = DIRECTION ( 'NONE',  ( 0.000000000000000000, 0.000000000000000000, 1.000000000000000000 ) ) ;
#266 = PERSON_AND_ORGANIZATION_ROLE ( 'creator' ) ;
#267 = DIRECTION ( 'NONE',  ( 1.000000000000000000, 0.000000000000000000, -0.000000000000000000 ) ) ;
#268 = DESIGN_CONTEXT ( 'detailed design', #225, 'design' ) ;
#269 = DIRECTION ( 'NONE',  ( 1.000000000000000000, 0.000000000000000000, 0.000000000000000000 ) ) ;
#270 = DIRECTION ( 'NONE',  ( 0.000000000000000000, 0.000000000000000000, 1.000000000000000000 ) ) ;
#271 = APPROVAL_PERSON_ORGANIZATION ( #106, #29, #261 ) ;
#272 = CARTESIAN_POINT ( 'NONE',  ( 0.000000000000000000, 0.000000000000000000, 5.000000000000000000 ) ) ;
#273 = CC_DESIGN_PERSON_AND_ORGANIZATION_ASSIGNMENT ( #27, #257, ( #88 ) ) ;
#274 = CARTESIAN_POINT ( 'NONE',  ( 0.000000000000000000, 0.000000000000000000, 255.0000000000000000 ) ) ;
#275 = APPROVAL ( #119, 'NEURÈENÝ' ) ;
#276 = APPROVAL_PERSON_ORGANIZATION ( #239, #21, #170 ) ;
#277 = EDGE_LOOP ( 'NONE', ( #232, #253 ) ) ;
#278 = PRODUCT_DEFINITION_SHAPE ( 'NONE', 'NONE',  #131 ) ;
#279 = VERTEX_POINT ( 'NONE', #76 ) ;
#280 = DIRECTION ( 'NONE',  ( -1.000000000000000000, 0.000000000000000000, 0.000000000000000000 ) ) ;
#281 = EDGE_CURVE ( 'NONE', #91, #49, #155, .T. ) ;
#282 = CIRCLE ( 'NONE', #67, 8.000000000000000000 ) ;
#283 = ORIENTED_EDGE ( 'NONE', *, *, #149, .T. ) ;
#284 = ORIENTED_EDGE ( 'NONE', *, *, #94, .T. ) ;
#285 = APPROVAL_DATE_TIME ( #208, #275 ) ;
#286 = ORIENTED_EDGE ( 'NONE', *, *, #70, .F. ) ;
#287 = LOCAL_TIME ( 14, 25, 6.000000000000000000, #243 ) ;
#288 = DATE_AND_TIME ( #53, #250 ) ;
#289 = LINE ( 'NONE', #125, #17 ) ;
#290 = PERSON ( 'NEURÈENÝ', 'NEURÈENÝ', 'NEURÈENÝ', ('NEURÈENÝ'), ('NEURÈENÝ'), ('NEURÈENÝ') ) ;
#291 = DIRECTION ( 'NONE',  ( 0.000000000000000000, 0.000000000000000000, 1.000000000000000000 ) ) ;
#292 = PLANE ( 'NONE',  #252 ) ;
#293 = DIRECTION ( 'NONE',  ( 1.000000000000000000, 0.000000000000000000, 0.000000000000000000 ) ) ;
#294 = AXIS2_PLACEMENT_3D ( 'NONE', #246, #58, #150 ) ;
#295 = CARTESIAN_POINT ( 'NONE',  ( 5.500000000000000000, 6.735557395310442023E-16, 5.200000000000009948 ) ) ;
#296 = DIRECTION ( 'NONE',  ( -0.000000000000000000, -0.000000000000000000, -1.000000000000000000 ) ) ;
#297 = CARTESIAN_POINT ( 'NONE',  ( 0.000000000000000000, 0.000000000000000000, 5.000000000000000000 ) ) ;
#298 = CARTESIAN_POINT ( 'NONE',  ( 0.000000000000000000, 0.000000000000000000, 5.200000000000009948 ) ) ;
#299 = CARTESIAN_POINT ( 'NONE',  ( 0.000000000000000000, 0.000000000000000000, 5.000000000000000000 ) ) ;
#300 = DIRECTION ( 'NONE',  ( -1.000000000000000000, 0.000000000000000000, 0.000000000000000000 ) ) ;
#301 = DIRECTION ( 'NONE',  ( 0.000000000000000000, 0.000000000000000000, 1.000000000000000000 ) ) ;
#302 = ORIENTED_EDGE ( 'NONE', *, *, #281, .F. ) ;
#303 = EDGE_LOOP ( 'NONE', ( #2, #286, #19, #165 ) ) ;
#304 = FACE_OUTER_BOUND ( 'NONE', #118, .T. ) ;
#305 = EDGE_CURVE ( 'NONE', #307, #279, #289, .T. ) ;
#306 = CC_DESIGN_PERSON_AND_ORGANIZATION_ASSIGNMENT ( #141, #5, ( #220 ) ) ;
#307 = VERTEX_POINT ( 'NONE', #217 ) ;
ENDSEC;
END-ISO-10303-21;
