ISO-10303-21;
HEADER;
FILE_DESCRIPTION (( 'STEP AP203' ),
    '1' );
FILE_NAME ('6d82.STEP',
    '2022-07-07T12:29:48',
    ( '' ),
    ( '' ),
    'SwSTEP 2.0',
    'SolidWorks 2019',
    '' );
FILE_SCHEMA (( 'CONFIG_CONTROL_DESIGN' ));
ENDSEC;

DATA;
#1 = ORIENTED_EDGE ( 'NONE', *, *, #90, .F. ) ;
#2 = PLANE ( 'NONE',  #187 ) ;
#3 = VECTOR ( 'NONE', #288, 1000.000000000000000 ) ;
#4 = VERTEX_POINT ( 'NONE', #282 ) ;
#5 = CARTESIAN_POINT ( 'NONE',  ( 0.000000000000000000, 0.000000000000000000, 5.000000000000000000 ) ) ;
#6 = EDGE_CURVE ( 'NONE', #234, #84, #93, .T. ) ;
#7 = FACE_OUTER_BOUND ( 'NONE', #89, .T. ) ;
#8 = DESIGN_CONTEXT ( 'detailed design', #73, 'design' ) ;
#9 = CARTESIAN_POINT ( 'NONE',  ( 0.000000000000000000, 0.000000000000000000, 205.0000000000000284 ) ) ;
#10 = PERSON_AND_ORGANIZATION ( #25, #29 ) ;
#11 = CALENDAR_DATE ( 2022, 7, 7 ) ;
#12 = DIRECTION ( 'NONE',  ( -0.000000000000000000, -0.000000000000000000, -1.000000000000000000 ) ) ;
#13 = CIRCLE ( 'NONE', #226, 4.500000000000000000 ) ;
#14 = COORDINATED_UNIVERSAL_TIME_OFFSET ( 1, 0, .AHEAD. ) ;
#15 = COORDINATED_UNIVERSAL_TIME_OFFSET ( 1, 0, .AHEAD. ) ;
#16 = AXIS2_PLACEMENT_3D ( 'NONE', #79, #77, #154 ) ;
#17 = EDGE_LOOP ( 'NONE', ( #65, #112 ) ) ;
#18 = EDGE_CURVE ( 'NONE', #4, #234, #13, .T. ) ;
#19 = APPROVAL_PERSON_ORGANIZATION ( #270, #235, #107 ) ;
#20 = DIRECTION ( 'NONE',  ( 1.000000000000000000, 0.000000000000000000, 0.000000000000000000 ) ) ;
#21 = AXIS2_PLACEMENT_3D ( 'NONE', #170, #116, #20 ) ;
#22 = ORIENTED_EDGE ( 'NONE', *, *, #255, .F. ) ;
#23 = ORIENTED_EDGE ( 'NONE', *, *, #232, .F. ) ;
#24 = CC_DESIGN_PERSON_AND_ORGANIZATION_ASSIGNMENT ( #221, #61, ( #233 ) ) ;
#25 = PERSON ( 'NEURÈENÝ', 'NEURÈENÝ', 'NEURÈENÝ', ('NEURÈENÝ'), ('NEURÈENÝ'), ('NEURÈENÝ') ) ;
#26 = DIRECTION ( 'NONE',  ( -0.000000000000000000, -0.000000000000000000, -1.000000000000000000 ) ) ;
#27 = ORIENTED_EDGE ( 'NONE', *, *, #51, .F. ) ;
#28 = EDGE_CURVE ( 'NONE', #189, #238, #287, .T. ) ;
#29 = ORGANIZATION ( 'NEURÈENÝ', 'NEURÈENÝ', '' ) ;
#30 = FACE_OUTER_BOUND ( 'NONE', #46, .T. ) ;
#31 = CYLINDRICAL_SURFACE ( 'NONE', #175, 4.500000000000000000 ) ;
#32 = CARTESIAN_POINT ( 'NONE',  ( 0.000000000000000000, 0.000000000000000000, 0.000000000000000000 ) ) ;
#33 = CIRCLE ( 'NONE', #231, 0.1999999999999996503 ) ;
#34 = DIRECTION ( 'NONE',  ( 0.000000000000000000, 0.000000000000000000, 1.000000000000000000 ) ) ;
#35 = COORDINATED_UNIVERSAL_TIME_OFFSET ( 1, 0, .AHEAD. ) ;
#36 = DIRECTION ( 'NONE',  ( -0.000000000000000000, -0.000000000000000000, -1.000000000000000000 ) ) ;
#37 = CC_DESIGN_APPROVAL ( #289, ( #118 ) ) ;
#38 = CARTESIAN_POINT ( 'NONE',  ( 7.000000000000000000, 8.572527594031473190E-16, 0.000000000000000000 ) ) ;
#39 = APPROVAL_DATE_TIME ( #126, #235 ) ;
#40 = CALENDAR_DATE ( 2022, 7, 7 ) ;
#41 = AXIS2_PLACEMENT_3D ( 'NONE', #242, #12, #220 ) ;
#42 = LOCAL_TIME ( 14, 29, 48.00000000000000000, #150 ) ;
#43 = ORIENTED_EDGE ( 'NONE', *, *, #100, .F. ) ;
#44 = VECTOR ( 'NONE', #304, 1000.000000000000000 ) ;
#45 = AXIS2_PLACEMENT_3D ( 'NONE', #224, #106, #200 ) ;
#46 = EDGE_LOOP ( 'NONE', ( #161, #301, #88, #27 ) ) ;
#47 = DIRECTION ( 'NONE',  ( -0.000000000000000000, -0.000000000000000000, -1.000000000000000000 ) ) ;
#48 = CARTESIAN_POINT ( 'NONE',  ( 0.000000000000000000, 0.000000000000000000, 5.000000000000000000 ) ) ;
#49 = DIRECTION ( 'NONE',  ( 1.224646799147353207E-16, 1.000000000000000000, -0.000000000000000000 ) ) ;
#50 = CARTESIAN_POINT ( 'NONE',  ( 7.000000000000000000, 8.572527594031473190E-16, 5.000000000000000000 ) ) ;
#51 = EDGE_CURVE ( 'NONE', #84, #307, #33, .T. ) ;
#52 = ORIENTED_EDGE ( 'NONE', *, *, #199, .F. ) ;
#53 = AXIS2_PLACEMENT_3D ( 'NONE', #57, #176, #97 ) ;
#54 = LINE ( 'NONE', #217, #3 ) ;
#55 = CARTESIAN_POINT ( 'NONE',  ( 0.000000000000000000, 0.000000000000000000, 205.0000000000000284 ) ) ;
#56 = MECHANICAL_CONTEXT ( 'NONE', #247, 'mechanical' ) ;
#57 = CARTESIAN_POINT ( 'NONE',  ( 0.000000000000000000, 0.000000000000000000, 5.000000000000000000 ) ) ;
#58 = PERSON_AND_ORGANIZATION ( #25, #29 ) ;
#59 = DIRECTION ( 'NONE',  ( -1.000000000000000000, 0.000000000000000000, 0.000000000000000000 ) ) ;
#60 = LOCAL_TIME ( 14, 29, 48.00000000000000000, #14 ) ;
#61 = PERSON_AND_ORGANIZATION_ROLE ( 'creator' ) ;
#62 = FACE_BOUND ( 'NONE', #136, .T. ) ;
#63 = EDGE_CURVE ( 'NONE', #234, #4, #162, .T. ) ;
#64 = VERTEX_POINT ( 'NONE', #168 ) ;
#65 = ORIENTED_EDGE ( 'NONE', *, *, #160, .T. ) ;
#66 = ORIENTED_EDGE ( 'NONE', *, *, #147, .T. ) ;
#67 = LOCAL_TIME ( 14, 29, 48.00000000000000000, #35 ) ;
#68 = ORIENTED_EDGE ( 'NONE', *, *, #302, .F. ) ;
#69 = DIRECTION ( 'NONE',  ( 1.000000000000000000, 0.000000000000000000, 0.000000000000000000 ) ) ;
#70 = DIRECTION ( 'NONE',  ( 1.000000000000000000, 0.000000000000000000, 0.000000000000000000 ) ) ;
#71 = CARTESIAN_POINT ( 'NONE',  ( 4.699999999999999289, 0.000000000000000000, 5.200000000000009948 ) ) ;
#72 = CARTESIAN_POINT ( 'NONE',  ( 0.000000000000000000, 0.000000000000000000, 205.0000000000000284 ) ) ;
#73 = APPLICATION_CONTEXT ( 'configuration controlled 3d designs of mechanical parts and assemblies' ) ;
#74 = DIRECTION ( 'NONE',  ( -0.000000000000000000, -0.000000000000000000, -1.000000000000000000 ) ) ;
#75 = LOCAL_TIME ( 14, 29, 48.00000000000000000, #15 ) ;
#76 = FACE_OUTER_BOUND ( 'NONE', #109, .T. ) ;
#77 = DIRECTION ( 'NONE',  ( 0.000000000000000000, 0.000000000000000000, 1.000000000000000000 ) ) ;
#78 = APPLICATION_PROTOCOL_DEFINITION ( 'international standard', 'config_control_design', 1994, #247 ) ;
#79 = CARTESIAN_POINT ( 'NONE',  ( 0.000000000000000000, 0.000000000000000000, 5.200000000000009948 ) ) ;
#80 = APPROVAL_STATUS ( 'not_yet_approved' ) ;
#81 = PRODUCT_RELATED_PRODUCT_CATEGORY ( 'detail', '', ( #115 ) ) ;
#82 = COORDINATED_UNIVERSAL_TIME_OFFSET ( 1, 0, .AHEAD. ) ;
#83 = DATE_AND_TIME ( #181, #182 ) ;
#84 = VERTEX_POINT ( 'NONE', #258 ) ;
#85 = AXIS2_PLACEMENT_3D ( 'NONE', #243, #264, #127 ) ;
#86 = CC_DESIGN_DATE_AND_TIME_ASSIGNMENT ( #298, #104, ( #118 ) ) ;
#87 = VERTEX_POINT ( 'NONE', #169 ) ;
#88 = ORIENTED_EDGE ( 'NONE', *, *, #253, .F. ) ;
#89 = EDGE_LOOP ( 'NONE', ( #52, #188, #252, #114 ) ) ;
#90 = EDGE_CURVE ( 'NONE', #64, #307, #236, .T. ) ;
#91 =( GEOMETRIC_REPRESENTATION_CONTEXT ( 3 ) GLOBAL_UNCERTAINTY_ASSIGNED_CONTEXT ( ( #218 ) ) GLOBAL_UNIT_ASSIGNED_CONTEXT ( ( #228, #251, #296 ) ) REPRESENTATION_CONTEXT ( 'NONE', 'WORKASPACE' ) );
#92 = ORIENTED_EDGE ( 'NONE', *, *, #135, .F. ) ;
#93 = LINE ( 'NONE', #164, #117 ) ;
#94 = CARTESIAN_POINT ( 'NONE',  ( 0.000000000000000000, 0.000000000000000000, 0.000000000000000000 ) ) ;
#95 = AXIS2_PLACEMENT_3D ( 'NONE', #5, #248, #149 ) ;
#96 = DIRECTION ( 'NONE',  ( -0.000000000000000000, -0.000000000000000000, -1.000000000000000000 ) ) ;
#97 = DIRECTION ( 'NONE',  ( -1.000000000000000000, 0.000000000000000000, 0.000000000000000000 ) ) ;
#98 = CIRCLE ( 'NONE', #141, 7.000000000000000000 ) ;
#99 = FACE_OUTER_BOUND ( 'NONE', #17, .T. ) ;
#100 = EDGE_CURVE ( 'NONE', #140, #64, #111, .T. ) ;
#101 = DIRECTION ( 'NONE',  ( 1.000000000000000000, 0.000000000000000000, -0.000000000000000000 ) ) ;
#102 = PERSON_AND_ORGANIZATION ( #25, #29 ) ;
#103 = DIRECTION ( 'NONE',  ( 1.000000000000000000, 0.000000000000000000, 0.000000000000000000 ) ) ;
#104 = DATE_TIME_ROLE ( 'creation_date' ) ;
#105 = CC_DESIGN_PERSON_AND_ORGANIZATION_ASSIGNMENT ( #58, #249, ( #115 ) ) ;
#106 = DIRECTION ( 'NONE',  ( 0.000000000000000000, 0.000000000000000000, 1.000000000000000000 ) ) ;
#107 = APPROVAL_ROLE ( '' ) ;
#108 = DATE_AND_TIME ( #185, #75 ) ;
#109 = EDGE_LOOP ( 'NONE', ( #92, #276, #254, #66 ) ) ;
#110 = DIRECTION ( 'NONE',  ( 0.000000000000000000, -1.000000000000000000, 0.000000000000000000 ) ) ;
#111 = CIRCLE ( 'NONE', #201, 0.1999999999999996503 ) ;
#112 = ORIENTED_EDGE ( 'NONE', *, *, #199, .T. ) ;
#113 = CIRCLE ( 'NONE', #95, 7.000000000000000000 ) ;
#114 = ORIENTED_EDGE ( 'NONE', *, *, #28, .F. ) ;
#115 = PRODUCT ( '6d82', '6d82', '', ( #56 ) ) ;
#116 = DIRECTION ( 'NONE',  ( 0.000000000000000000, 0.000000000000000000, 1.000000000000000000 ) ) ;
#117 = VECTOR ( 'NONE', #96, 1000.000000000000000 ) ;
#118 = PRODUCT_DEFINITION ( 'NEZNÁMÝ', '', #233, #8 ) ;
#119 = ORIENTED_EDGE ( 'NONE', *, *, #147, .F. ) ;
#120 = AXIS2_PLACEMENT_3D ( 'NONE', #178, #268, #103 ) ;
#121 = DIRECTION ( 'NONE',  ( 1.000000000000000000, 0.000000000000000000, -0.000000000000000000 ) ) ;
#122 = CYLINDRICAL_SURFACE ( 'NONE', #210, 4.500000000000000000 ) ;
#123 = CC_DESIGN_PERSON_AND_ORGANIZATION_ASSIGNMENT ( #102, #225, ( #212 ) ) ;
#124 = APPROVAL_DATE_TIME ( #83, #289 ) ;
#125 = CARTESIAN_POINT ( 'NONE',  ( -7.000000000000000000, 0.000000000000000000, 5.000000000000000000 ) ) ;
#126 = DATE_AND_TIME ( #40, #67 ) ;
#127 = DIRECTION ( 'NONE',  ( 1.000000000000000000, 0.000000000000000000, 0.000000000000000000 ) ) ;
#128 = APPROVAL_ROLE ( '' ) ;
#129 = CARTESIAN_POINT ( 'NONE',  ( 4.500000000000000000, 5.510910596163088569E-16, 205.0000000000000284 ) ) ;
#130 = SECURITY_CLASSIFICATION_LEVEL ( 'unclassified' ) ;
#131 = APPROVAL_STATUS ( 'not_yet_approved' ) ;
#132 = CIRCLE ( 'NONE', #45, 4.500000000000000000 ) ;
#133 = EDGE_LOOP ( 'NONE', ( #209, #237, #277, #159 ) ) ;
#134 = MANIFOLD_SOLID_BREP ( 'Zaoblit1', #278 ) ;
#135 = EDGE_CURVE ( 'NONE', #87, #190, #257, .T. ) ;
#136 = EDGE_LOOP ( 'NONE', ( #194, #211 ) ) ;
#137 = ORIENTED_EDGE ( 'NONE', *, *, #51, .T. ) ;
#138 = APPROVAL_PERSON_ORGANIZATION ( #273, #139, #229 ) ;
#139 = APPROVAL ( #131, 'NEURÈENÝ' ) ;
#140 = VERTEX_POINT ( 'NONE', #146 ) ;
#141 = AXIS2_PLACEMENT_3D ( 'NONE', #143, #145, #239 ) ;
#142 = CARTESIAN_POINT ( 'NONE',  ( -7.000000000000000000, 0.000000000000000000, 5.000000000000000000 ) ) ;
#143 = CARTESIAN_POINT ( 'NONE',  ( 0.000000000000000000, 0.000000000000000000, 5.000000000000000000 ) ) ;
#144 = CC_DESIGN_PERSON_AND_ORGANIZATION_ASSIGNMENT ( #265, #157, ( #118 ) ) ;
#145 = DIRECTION ( 'NONE',  ( 0.000000000000000000, 0.000000000000000000, 1.000000000000000000 ) ) ;
#146 = CARTESIAN_POINT ( 'NONE',  ( -4.500000000000000000, 0.000000000000000000, 5.200000000000009948 ) ) ;
#147 = EDGE_CURVE ( 'NONE', #238, #190, #158, .T. ) ;
#148 = DIRECTION ( 'NONE',  ( 1.000000000000000000, 0.000000000000000000, -0.000000000000000000 ) ) ;
#149 = DIRECTION ( 'NONE',  ( 1.000000000000000000, 0.000000000000000000, 0.000000000000000000 ) ) ;
#150 = COORDINATED_UNIVERSAL_TIME_OFFSET ( 1, 0, .AHEAD. ) ;
#151 = CARTESIAN_POINT ( 'NONE',  ( 0.000000000000000000, 0.000000000000000000, 5.000000000000000000 ) ) ;
#152 = ADVANCED_BREP_SHAPE_REPRESENTATION ( '6d82', ( #134, #280 ), #91 ) ;
#153 = TOROIDAL_SURFACE ( 'NONE', #120, 4.699999999999999289, 0.2000000000000000111 ) ;
#154 = DIRECTION ( 'NONE',  ( 1.000000000000000000, 0.000000000000000000, 0.000000000000000000 ) ) ;
#155 = PERSON_AND_ORGANIZATION_ROLE ( 'design_supplier' ) ;
#156 = CARTESIAN_POINT ( 'NONE',  ( 4.699999999999999289, 0.000000000000000000, 5.000000000000005329 ) ) ;
#157 = PERSON_AND_ORGANIZATION_ROLE ( 'creator' ) ;
#158 = CIRCLE ( 'NONE', #21, 7.000000000000000000 ) ;
#159 = ORIENTED_EDGE ( 'NONE', *, *, #240, .T. ) ;
#160 = EDGE_CURVE ( 'NONE', #189, #87, #98, .T. ) ;
#161 = ORIENTED_EDGE ( 'NONE', *, *, #240, .F. ) ;
#162 = CIRCLE ( 'NONE', #179, 4.500000000000000000 ) ;
#163 = CC_DESIGN_APPROVAL ( #139, ( #212 ) ) ;
#164 = CARTESIAN_POINT ( 'NONE',  ( 4.500000000000000000, 5.510910596163088569E-16, 205.0000000000000284 ) ) ;
#165 = CARTESIAN_POINT ( 'NONE',  ( -4.699999999999999289, 5.755839955992558669E-16, 5.200000000000009948 ) ) ;
#166 = PRODUCT_DEFINITION_SHAPE ( 'NONE', 'NONE',  #118 ) ;
#167 = ADVANCED_FACE ( 'NONE', ( #241 ), #2, .F. ) ;
#168 = CARTESIAN_POINT ( 'NONE',  ( -4.699999999999999289, 5.755839955992558669E-16, 5.000000000000005329 ) ) ;
#169 = CARTESIAN_POINT ( 'NONE',  ( 7.000000000000000000, 8.572527594031473190E-16, 5.000000000000000000 ) ) ;
#170 = CARTESIAN_POINT ( 'NONE',  ( 0.000000000000000000, 0.000000000000000000, 0.000000000000000000 ) ) ;
#172 = ADVANCED_FACE ( 'NONE', ( #272 ), #122, .T. ) ;
#171 = AXIS2_PLACEMENT_3D ( 'NONE', #48, #47, #69 ) ;
#173 = CYLINDRICAL_SURFACE ( 'NONE', #53, 7.000000000000000000 ) ;
#174 = CIRCLE ( 'NONE', #41, 4.699999999999999289 ) ;
#175 = AXIS2_PLACEMENT_3D ( 'NONE', #297, #36, #196 ) ;
#176 = DIRECTION ( 'NONE',  ( -0.000000000000000000, -0.000000000000000000, -1.000000000000000000 ) ) ;
#177 = PERSON_AND_ORGANIZATION ( #25, #29 ) ;
#178 = CARTESIAN_POINT ( 'NONE',  ( 0.000000000000000000, 0.000000000000000000, 5.200000000000009948 ) ) ;
#179 = AXIS2_PLACEMENT_3D ( 'NONE', #72, #214, #70 ) ;
#180 = DIRECTION ( 'NONE',  ( 0.000000000000000000, 0.000000000000000000, 1.000000000000000000 ) ) ;
#181 = CALENDAR_DATE ( 2022, 7, 7 ) ;
#182 = LOCAL_TIME ( 14, 29, 48.00000000000000000, #82 ) ;
#183 = DIRECTION ( 'NONE',  ( 0.000000000000000000, 0.000000000000000000, 1.000000000000000000 ) ) ;
#184 = DATE_AND_TIME ( #203, #60 ) ;
#185 = CALENDAR_DATE ( 2022, 7, 7 ) ;
#186 = ADVANCED_FACE ( 'NONE', ( #7 ), #173, .T. ) ;
#187 = AXIS2_PLACEMENT_3D ( 'NONE', #94, #193, #121 ) ;
#188 = ORIENTED_EDGE ( 'NONE', *, *, #135, .T. ) ;
#189 = VERTEX_POINT ( 'NONE', #125 ) ;
#190 = VERTEX_POINT ( 'NONE', #38 ) ;
#191 = EDGE_LOOP ( 'NONE', ( #119, #22 ) ) ;
#192 = CARTESIAN_POINT ( 'NONE',  ( 0.000000000000000000, 0.000000000000000000, 205.0000000000000284 ) ) ;
#193 = DIRECTION ( 'NONE',  ( 0.000000000000000000, 0.000000000000000000, 1.000000000000000000 ) ) ;
#194 = ORIENTED_EDGE ( 'NONE', *, *, #253, .T. ) ;
#195 = CARTESIAN_POINT ( 'NONE',  ( 0.000000000000000000, 0.000000000000000000, 5.000000000000000000 ) ) ;
#196 = DIRECTION ( 'NONE',  ( -1.000000000000000000, 0.000000000000000000, 0.000000000000000000 ) ) ;
#197 = CARTESIAN_POINT ( 'NONE',  ( 0.000000000000000000, 0.000000000000000000, 5.200000000000009948 ) ) ;
#198 = DATE_TIME_ROLE ( 'classification_date' ) ;
#199 = EDGE_CURVE ( 'NONE', #87, #189, #113, .T. ) ;
#200 = DIRECTION ( 'NONE',  ( 1.000000000000000000, 0.000000000000000000, 0.000000000000000000 ) ) ;
#201 = AXIS2_PLACEMENT_3D ( 'NONE', #165, #49, #260 ) ;
#202 = CARTESIAN_POINT ( 'NONE',  ( -7.000000000000000000, 0.000000000000000000, 0.000000000000000000 ) ) ;
#203 = CALENDAR_DATE ( 2022, 7, 7 ) ;
#204 = APPROVAL_PERSON_ORGANIZATION ( #177, #289, #128 ) ;
#205 = ADVANCED_FACE ( 'NONE', ( #62, #99 ), #245, .T. ) ;
#206 = APPROVAL_DATE_TIME ( #108, #139 ) ;
#207 = AXIS2_PLACEMENT_3D ( 'NONE', #9, #183, #101 ) ;
#208 = EDGE_LOOP ( 'NONE', ( #281, #261 ) ) ;
#209 = ORIENTED_EDGE ( 'NONE', *, *, #6, .F. ) ;
#210 = AXIS2_PLACEMENT_3D ( 'NONE', #55, #219, #262 ) ;
#211 = ORIENTED_EDGE ( 'NONE', *, *, #90, .T. ) ;
#212 = SECURITY_CLASSIFICATION ( '', '', #130 ) ;
#213 = ORIENTED_EDGE ( 'NONE', *, *, #302, .T. ) ;
#214 = DIRECTION ( 'NONE',  ( 0.000000000000000000, 0.000000000000000000, 1.000000000000000000 ) ) ;
#215 = CC_DESIGN_PERSON_AND_ORGANIZATION_ASSIGNMENT ( #10, #155, ( #233 ) ) ;
#216 = DIRECTION ( 'NONE',  ( 1.000000000000000000, 0.000000000000000000, 0.000000000000000000 ) ) ;
#217 = CARTESIAN_POINT ( 'NONE',  ( -4.500000000000000000, 0.000000000000000000, 205.0000000000000284 ) ) ;
#218 = UNCERTAINTY_MEASURE_WITH_UNIT (LENGTH_MEASURE( 1.000000000000000082E-05 ), #228, 'distance_accuracy_value', 'NONE');
#219 = DIRECTION ( 'NONE',  ( -0.000000000000000000, -0.000000000000000000, -1.000000000000000000 ) ) ;
#220 = DIRECTION ( 'NONE',  ( 1.000000000000000000, 0.000000000000000000, 0.000000000000000000 ) ) ;
#221 = PERSON_AND_ORGANIZATION ( #25, #29 ) ;
#222 = TOROIDAL_SURFACE ( 'NONE', #299, 4.699999999999999289, 0.2000000000000000111 ) ;
#223 = FACE_OUTER_BOUND ( 'NONE', #285, .T. ) ;
#224 = CARTESIAN_POINT ( 'NONE',  ( 0.000000000000000000, 0.000000000000000000, 5.200000000000009948 ) ) ;
#225 = PERSON_AND_ORGANIZATION_ROLE ( 'classification_officer' ) ;
#226 = AXIS2_PLACEMENT_3D ( 'NONE', #192, #256, #216 ) ;
#227 = ADVANCED_FACE ( 'NONE', ( #76 ), #246, .T. ) ;
#228 =( LENGTH_UNIT ( ) NAMED_UNIT ( * ) SI_UNIT ( .MILLI., .METRE. ) );
#229 = APPROVAL_ROLE ( '' ) ;
#230 = ORIENTED_EDGE ( 'NONE', *, *, #63, .F. ) ;
#231 = AXIS2_PLACEMENT_3D ( 'NONE', #71, #110, #283 ) ;
#232 = EDGE_CURVE ( 'NONE', #4, #140, #54, .T. ) ;
#233 = PRODUCT_DEFINITION_FORMATION_WITH_SPECIFIED_SOURCE ( 'LIBOVOLNÝ', '', #115, .NOT_KNOWN. ) ;
#234 = VERTEX_POINT ( 'NONE', #129 ) ;
#236 = CIRCLE ( 'NONE', #171, 4.699999999999999289 ) ;
#235 = APPROVAL ( #80, 'NEURÈENÝ' ) ;
#237 = ORIENTED_EDGE ( 'NONE', *, *, #18, .F. ) ;
#238 = VERTEX_POINT ( 'NONE', #202 ) ;
#239 = DIRECTION ( 'NONE',  ( 1.000000000000000000, 0.000000000000000000, 0.000000000000000000 ) ) ;
#240 = EDGE_CURVE ( 'NONE', #140, #84, #132, .T. ) ;
#241 = FACE_OUTER_BOUND ( 'NONE', #191, .T. ) ;
#242 = CARTESIAN_POINT ( 'NONE',  ( 0.000000000000000000, 0.000000000000000000, 5.000000000000000000 ) ) ;
#243 = CARTESIAN_POINT ( 'NONE',  ( 0.000000000000000000, 0.000000000000000000, 0.000000000000000000 ) ) ;
#244 = APPROVAL_STATUS ( 'not_yet_approved' ) ;
#245 = PLANE ( 'NONE',  #269 ) ;
#246 = CYLINDRICAL_SURFACE ( 'NONE', #305, 7.000000000000000000 ) ;
#247 = APPLICATION_CONTEXT ( 'configuration controlled 3d designs of mechanical parts and assemblies' ) ;
#248 = DIRECTION ( 'NONE',  ( 0.000000000000000000, 0.000000000000000000, 1.000000000000000000 ) ) ;
#249 = PERSON_AND_ORGANIZATION_ROLE ( 'design_owner' ) ;
#250 = CC_DESIGN_DATE_AND_TIME_ASSIGNMENT ( #184, #198, ( #212 ) ) ;
#251 =( NAMED_UNIT ( * ) PLANE_ANGLE_UNIT ( ) SI_UNIT ( $, .RADIAN. ) );
#252 = ORIENTED_EDGE ( 'NONE', *, *, #255, .T. ) ;
#253 = EDGE_CURVE ( 'NONE', #307, #64, #174, .T. ) ;
#254 = ORIENTED_EDGE ( 'NONE', *, *, #28, .T. ) ;
#255 = EDGE_CURVE ( 'NONE', #190, #238, #286, .T. ) ;
#256 = DIRECTION ( 'NONE',  ( 0.000000000000000000, 0.000000000000000000, 1.000000000000000000 ) ) ;
#257 = LINE ( 'NONE', #50, #44 ) ;
#258 = CARTESIAN_POINT ( 'NONE',  ( 4.500000000000000000, 5.510910596163088569E-16, 5.200000000000009948 ) ) ;
#259 = CC_DESIGN_SECURITY_CLASSIFICATION ( #212, ( #233 ) ) ;
#260 = DIRECTION ( 'NONE',  ( -1.000000000000000000, 1.224646799147353454E-16, 0.000000000000000000 ) ) ;
#261 = ORIENTED_EDGE ( 'NONE', *, *, #63, .T. ) ;
#262 = DIRECTION ( 'NONE',  ( -1.000000000000000000, 0.000000000000000000, 0.000000000000000000 ) ) ;
#263 = ADVANCED_FACE ( 'NONE', ( #294 ), #31, .T. ) ;
#264 = DIRECTION ( 'NONE',  ( 0.000000000000000000, 0.000000000000000000, 1.000000000000000000 ) ) ;
#265 = PERSON_AND_ORGANIZATION ( #25, #29 ) ;
#266 = FACE_OUTER_BOUND ( 'NONE', #208, .T. ) ;
#267 = DIRECTION ( 'NONE',  ( 1.000000000000000000, 0.000000000000000000, 0.000000000000000000 ) ) ;
#268 = DIRECTION ( 'NONE',  ( 0.000000000000000000, 0.000000000000000000, 1.000000000000000000 ) ) ;
#269 = AXIS2_PLACEMENT_3D ( 'NONE', #195, #34, #148 ) ;
#270 = PERSON_AND_ORGANIZATION ( #25, #29 ) ;
#271 = CIRCLE ( 'NONE', #16, 4.500000000000000000 ) ;
#272 = FACE_OUTER_BOUND ( 'NONE', #133, .T. ) ;
#273 = PERSON_AND_ORGANIZATION ( #25, #29 ) ;
#274 = EDGE_LOOP ( 'NONE', ( #230, #303, #213, #23 ) ) ;
#275 = APPLICATION_PROTOCOL_DEFINITION ( 'international standard', 'config_control_design', 1994, #73 ) ;
#276 = ORIENTED_EDGE ( 'NONE', *, *, #160, .F. ) ;
#277 = ORIENTED_EDGE ( 'NONE', *, *, #232, .T. ) ;
#278 = CLOSED_SHELL ( 'NONE', ( #293, #263, #186, #227, #205, #167, #172, #279, #284 ) ) ;
#279 = ADVANCED_FACE ( 'NONE', ( #266 ), #290, .T. ) ;
#280 = AXIS2_PLACEMENT_3D ( 'NONE', #32, #292, #267 ) ;
#281 = ORIENTED_EDGE ( 'NONE', *, *, #18, .T. ) ;
#282 = CARTESIAN_POINT ( 'NONE',  ( -4.500000000000000000, 0.000000000000000000, 205.0000000000000284 ) ) ;
#283 = DIRECTION ( 'NONE',  ( 0.000000000000000000, 0.000000000000000000, -1.000000000000000000 ) ) ;
#284 = ADVANCED_FACE ( 'NONE', ( #223 ), #222, .F. ) ;
#285 = EDGE_LOOP ( 'NONE', ( #43, #68, #137, #1 ) ) ;
#286 = CIRCLE ( 'NONE', #85, 7.000000000000000000 ) ;
#287 = LINE ( 'NONE', #142, #295 ) ;
#288 = DIRECTION ( 'NONE',  ( -0.000000000000000000, -0.000000000000000000, -1.000000000000000000 ) ) ;
#289 = APPROVAL ( #244, 'NEURÈENÝ' ) ;
#290 = PLANE ( 'NONE',  #207 ) ;
#291 = DIRECTION ( 'NONE',  ( 1.000000000000000000, 0.000000000000000000, 0.000000000000000000 ) ) ;
#292 = DIRECTION ( 'NONE',  ( 0.000000000000000000, 0.000000000000000000, 1.000000000000000000 ) ) ;
#293 = ADVANCED_FACE ( 'NONE', ( #30 ), #153, .F. ) ;
#294 = FACE_OUTER_BOUND ( 'NONE', #274, .T. ) ;
#295 = VECTOR ( 'NONE', #26, 1000.000000000000000 ) ;
#296 =( NAMED_UNIT ( * ) SI_UNIT ( $, .STERADIAN. ) SOLID_ANGLE_UNIT ( ) );
#297 = CARTESIAN_POINT ( 'NONE',  ( 0.000000000000000000, 0.000000000000000000, 205.0000000000000284 ) ) ;
#298 = DATE_AND_TIME ( #11, #42 ) ;
#299 = AXIS2_PLACEMENT_3D ( 'NONE', #197, #180, #291 ) ;
#300 = SHAPE_DEFINITION_REPRESENTATION ( #166, #152 ) ;
#301 = ORIENTED_EDGE ( 'NONE', *, *, #100, .T. ) ;
#302 = EDGE_CURVE ( 'NONE', #84, #140, #271, .T. ) ;
#303 = ORIENTED_EDGE ( 'NONE', *, *, #6, .T. ) ;
#304 = DIRECTION ( 'NONE',  ( -0.000000000000000000, -0.000000000000000000, -1.000000000000000000 ) ) ;
#305 = AXIS2_PLACEMENT_3D ( 'NONE', #151, #74, #59 ) ;
#306 = CC_DESIGN_APPROVAL ( #235, ( #233 ) ) ;
#307 = VERTEX_POINT ( 'NONE', #156 ) ;
ENDSEC;
END-ISO-10303-21;
