ISO-10303-21;
HEADER;
FILE_DESCRIPTION (( 'STEP AP203' ),
    '1' );
FILE_NAME ('1a1b.STEP',
    '2022-07-07T12:33:40',
    ( '' ),
    ( '' ),
    'SwSTEP 2.0',
    'SolidWorks 2019',
    '' );
FILE_SCHEMA (( 'CONFIG_CONTROL_DESIGN' ));
ENDSEC;

DATA;
#1 = FACE_OUTER_BOUND ( 'NONE', #298, .T. ) ;
#2 = LOCAL_TIME ( 14, 33, 40.00000000000000000, #285 ) ;
#3 = PLANE ( 'NONE',  #207 ) ;
#4 = CARTESIAN_POINT ( 'NONE',  ( 4.099999999999999645, 5.021051876504147385E-16, 105.0000000000000142 ) ) ;
#5 = FACE_OUTER_BOUND ( 'NONE', #79, .T. ) ;
#6 = DIRECTION ( 'NONE',  ( 1.000000000000000000, 0.000000000000000000, 0.000000000000000000 ) ) ;
#7 = CIRCLE ( 'NONE', #128, 4.299999999999998934 ) ;
#8 = VERTEX_POINT ( 'NONE', #306 ) ;
#9 = APPLICATION_CONTEXT ( 'configuration controlled 3d designs of mechanical parts and assemblies' ) ;
#10 = EDGE_CURVE ( 'NONE', #57, #176, #137, .T. ) ;
#11 =( NAMED_UNIT ( * ) PLANE_ANGLE_UNIT ( ) SI_UNIT ( $, .RADIAN. ) );
#12 = ORIENTED_EDGE ( 'NONE', *, *, #218, .F. ) ;
#13 = PERSON_AND_ORGANIZATION ( #135, #272 ) ;
#14 = CALENDAR_DATE ( 2022, 7, 7 ) ;
#15 = FACE_OUTER_BOUND ( 'NONE', #110, .T. ) ;
#16 = ADVANCED_FACE ( 'NONE', ( #180 ), #239, .F. ) ;
#17 = APPROVAL_STATUS ( 'not_yet_approved' ) ;
#18 = EDGE_LOOP ( 'NONE', ( #299, #12, #52, #251 ) ) ;
#19 = PERSON_AND_ORGANIZATION_ROLE ( 'design_supplier' ) ;
#20 = DIRECTION ( 'NONE',  ( 0.000000000000000000, -1.000000000000000000, 0.000000000000000000 ) ) ;
#21 = EDGE_CURVE ( 'NONE', #307, #193, #7, .T. ) ;
#22 = PERSON_AND_ORGANIZATION_ROLE ( 'design_owner' ) ;
#23 = ORIENTED_EDGE ( 'NONE', *, *, #265, .F. ) ;
#24 = PERSON_AND_ORGANIZATION ( #135, #272 ) ;
#25 = DIRECTION ( 'NONE',  ( -0.000000000000000000, -0.000000000000000000, -1.000000000000000000 ) ) ;
#26 = AXIS2_PLACEMENT_3D ( 'NONE', #46, #147, #28 ) ;
#27 = APPLICATION_CONTEXT ( 'configuration controlled 3d designs of mechanical parts and assemblies' ) ;
#28 = DIRECTION ( 'NONE',  ( 1.000000000000000000, 0.000000000000000000, 0.000000000000000000 ) ) ;
#29 = ADVANCED_FACE ( 'NONE', ( #160 ), #256, .T. ) ;
#30 = DIRECTION ( 'NONE',  ( -1.000000000000000000, 1.224646799147353454E-16, 0.000000000000000000 ) ) ;
#31 = FACE_OUTER_BOUND ( 'NONE', #154, .T. ) ;
#32 = ORIENTED_EDGE ( 'NONE', *, *, #283, .F. ) ;
#33 = EDGE_LOOP ( 'NONE', ( #225, #86, #226, #32 ) ) ;
#34 = APPROVAL_PERSON_ORGANIZATION ( #13, #97, #114 ) ;
#35 = CARTESIAN_POINT ( 'NONE',  ( -7.000000000000000000, 0.000000000000000000, 0.000000000000000000 ) ) ;
#36 = PERSON_AND_ORGANIZATION_ROLE ( 'creator' ) ;
#37 = CARTESIAN_POINT ( 'NONE',  ( 0.000000000000000000, 0.000000000000000000, 5.000000000000000000 ) ) ;
#38 = DIRECTION ( 'NONE',  ( 0.000000000000000000, 0.000000000000000000, 1.000000000000000000 ) ) ;
#39 = DIRECTION ( 'NONE',  ( -0.000000000000000000, -0.000000000000000000, -1.000000000000000000 ) ) ;
#40 = PRODUCT_RELATED_PRODUCT_CATEGORY ( 'detail', '', ( #83 ) ) ;
#41 = CARTESIAN_POINT ( 'NONE',  ( -7.000000000000000000, 0.000000000000000000, 5.000000000000000000 ) ) ;
#42 = DATE_AND_TIME ( #14, #297 ) ;
#43 = ORIENTED_EDGE ( 'NONE', *, *, #10, .T. ) ;
#44 = DIRECTION ( 'NONE',  ( 1.224646799147353207E-16, 1.000000000000000000, -0.000000000000000000 ) ) ;
#45 = CC_DESIGN_PERSON_AND_ORGANIZATION_ASSIGNMENT ( #61, #254, ( #155 ) ) ;
#46 = CARTESIAN_POINT ( 'NONE',  ( 0.000000000000000000, 0.000000000000000000, 5.199999999999996625 ) ) ;
#47 = CARTESIAN_POINT ( 'NONE',  ( 0.000000000000000000, 0.000000000000000000, 105.0000000000000142 ) ) ;
#48 = CARTESIAN_POINT ( 'NONE',  ( 0.000000000000000000, 0.000000000000000000, 5.000000000000000000 ) ) ;
#49 = APPROVAL ( #165, 'NEURÈENÝ' ) ;
#50 = CARTESIAN_POINT ( 'NONE',  ( 0.000000000000000000, 0.000000000000000000, 5.199999999999996625 ) ) ;
#51 = LOCAL_TIME ( 14, 33, 40.00000000000000000, #240 ) ;
#52 = ORIENTED_EDGE ( 'NONE', *, *, #158, .T. ) ;
#53 = CC_DESIGN_DATE_AND_TIME_ASSIGNMENT ( #91, #109, ( #163 ) ) ;
#54 = AXIS2_PLACEMENT_3D ( 'NONE', #98, #291, #125 ) ;
#55 = CC_DESIGN_SECURITY_CLASSIFICATION ( #155, ( #219 ) ) ;
#56 = CALENDAR_DATE ( 2022, 7, 7 ) ;
#57 = VERTEX_POINT ( 'NONE', #255 ) ;
#58 = ADVANCED_BREP_SHAPE_REPRESENTATION ( '1a1b', ( #80, #211 ), #229 ) ;
#59 = SECURITY_CLASSIFICATION_LEVEL ( 'unclassified' ) ;
#60 = CARTESIAN_POINT ( 'NONE',  ( 0.000000000000000000, 0.000000000000000000, 5.199999999999996625 ) ) ;
#61 = PERSON_AND_ORGANIZATION ( #135, #272 ) ;
#62 = APPROVAL_PERSON_ORGANIZATION ( #24, #49, #263 ) ;
#63 = DIRECTION ( 'NONE',  ( 0.000000000000000000, 0.000000000000000000, 1.000000000000000000 ) ) ;
#64 = ORIENTED_EDGE ( 'NONE', *, *, #181, .F. ) ;
#65 = CALENDAR_DATE ( 2022, 7, 7 ) ;
#66 = DIRECTION ( 'NONE',  ( 1.000000000000000000, 0.000000000000000000, 0.000000000000000000 ) ) ;
#67 = CC_DESIGN_PERSON_AND_ORGANIZATION_ASSIGNMENT ( #234, #36, ( #163 ) ) ;
#68 = AXIS2_PLACEMENT_3D ( 'NONE', #50, #243, #172 ) ;
#69 = LINE ( 'NONE', #261, #84 ) ;
#70 = DIRECTION ( 'NONE',  ( -1.000000000000000000, 0.000000000000000000, 0.000000000000000000 ) ) ;
#71 = EDGE_CURVE ( 'NONE', #204, #8, #69, .T. ) ;
#72 = CARTESIAN_POINT ( 'NONE',  ( 0.000000000000000000, 0.000000000000000000, 0.000000000000000000 ) ) ;
#73 = CLOSED_SHELL ( 'NONE', ( #223, #106, #273, #173, #169, #16, #29, #213, #277 ) ) ;
#74 = DIRECTION ( 'NONE',  ( 0.000000000000000000, 0.000000000000000000, 1.000000000000000000 ) ) ;
#75 = AXIS2_PLACEMENT_3D ( 'NONE', #212, #271, #150 ) ;
#76 = CYLINDRICAL_SURFACE ( 'NONE', #146, 7.000000000000000000 ) ;
#77 = DIRECTION ( 'NONE',  ( 1.000000000000000000, 0.000000000000000000, 0.000000000000000000 ) ) ;
#78 = VECTOR ( 'NONE', #39, 1000.000000000000000 ) ;
#79 = EDGE_LOOP ( 'NONE', ( #206, #90, #182, #192 ) ) ;
#80 = MANIFOLD_SOLID_BREP ( 'Zaoblit1', #73 ) ;
#81 = DESIGN_CONTEXT ( 'detailed design', #27, 'design' ) ;
#82 = ORIENTED_EDGE ( 'NONE', *, *, #259, .F. ) ;
#83 = PRODUCT ( '1a1b', '1a1b', '', ( #179 ) ) ;
#84 = VECTOR ( 'NONE', #89, 1000.000000000000000 ) ;
#85 = AXIS2_PLACEMENT_3D ( 'NONE', #168, #74, #101 ) ;
#86 = ORIENTED_EDGE ( 'NONE', *, *, #10, .F. ) ;
#87 = COORDINATED_UNIVERSAL_TIME_OFFSET ( 1, 0, .AHEAD. ) ;
#88 = DIRECTION ( 'NONE',  ( 0.000000000000000000, 0.000000000000000000, 1.000000000000000000 ) ) ;
#89 = DIRECTION ( 'NONE',  ( -0.000000000000000000, -0.000000000000000000, -1.000000000000000000 ) ) ;
#90 = ORIENTED_EDGE ( 'NONE', *, *, #71, .T. ) ;
#91 = DATE_AND_TIME ( #305, #2 ) ;
#92 = DIRECTION ( 'NONE',  ( -1.000000000000000000, 0.000000000000000000, 0.000000000000000000 ) ) ;
#93 = ORIENTED_EDGE ( 'NONE', *, *, #21, .T. ) ;
#94 = APPROVAL_DATE_TIME ( #186, #49 ) ;
#95 = CIRCLE ( 'NONE', #293, 4.299999999999998934 ) ;
#96 = DIRECTION ( 'NONE',  ( 0.000000000000000000, 0.000000000000000000, 1.000000000000000000 ) ) ;
#97 = APPROVAL ( #287, 'NEURÈENÝ' ) ;
#98 = CARTESIAN_POINT ( 'NONE',  ( 0.000000000000000000, 0.000000000000000000, 105.0000000000000142 ) ) ;
#99 = CARTESIAN_POINT ( 'NONE',  ( 4.299999999999998934, 0.000000000000000000, 4.999999999999998224 ) ) ;
#100 = DIRECTION ( 'NONE',  ( -0.000000000000000000, -0.000000000000000000, -1.000000000000000000 ) ) ;
#101 = DIRECTION ( 'NONE',  ( 1.000000000000000000, 0.000000000000000000, 0.000000000000000000 ) ) ;
#102 = VECTOR ( 'NONE', #191, 1000.000000000000000 ) ;
#103 =( LENGTH_UNIT ( ) NAMED_UNIT ( * ) SI_UNIT ( .MILLI., .METRE. ) );
#104 = LOCAL_TIME ( 14, 33, 40.00000000000000000, #87 ) ;
#105 = CC_DESIGN_PERSON_AND_ORGANIZATION_ASSIGNMENT ( #116, #136, ( #219 ) ) ;
#106 = ADVANCED_FACE ( 'NONE', ( #15 ), #258, .T. ) ;
#107 = ORIENTED_EDGE ( 'NONE', *, *, #181, .T. ) ;
#108 = CC_DESIGN_APPROVAL ( #194, ( #219 ) ) ;
#109 = DATE_TIME_ROLE ( 'creation_date' ) ;
#110 = EDGE_LOOP ( 'NONE', ( #82, #278, #43, #141 ) ) ;
#111 = PERSON_AND_ORGANIZATION ( #135, #272 ) ;
#112 = VERTEX_POINT ( 'NONE', #35 ) ;
#113 = EDGE_CURVE ( 'NONE', #57, #307, #208, .T. ) ;
#114 = APPROVAL_ROLE ( '' ) ;
#115 = ORIENTED_EDGE ( 'NONE', *, *, #283, .T. ) ;
#116 = PERSON_AND_ORGANIZATION ( #135, #272 ) ;
#117 = ORIENTED_EDGE ( 'NONE', *, *, #126, .T. ) ;
#118 = CC_DESIGN_PERSON_AND_ORGANIZATION_ASSIGNMENT ( #231, #22, ( #83 ) ) ;
#119 = CARTESIAN_POINT ( 'NONE',  ( -4.099999999999999645, 0.000000000000000000, 105.0000000000000142 ) ) ;
#120 = TOROIDAL_SURFACE ( 'NONE', #26, 4.299999999999998934, 0.2000000000000000111 ) ;
#121 = CARTESIAN_POINT ( 'NONE',  ( 0.000000000000000000, 0.000000000000000000, 5.000000000000000000 ) ) ;
#122 = DIRECTION ( 'NONE',  ( 1.000000000000000000, 0.000000000000000000, 0.000000000000000000 ) ) ;
#123 = DIRECTION ( 'NONE',  ( -0.000000000000000000, -0.000000000000000000, -1.000000000000000000 ) ) ;
#124 = EDGE_CURVE ( 'NONE', #295, #112, #162, .T. ) ;
#125 = DIRECTION ( 'NONE',  ( 1.000000000000000000, 0.000000000000000000, 0.000000000000000000 ) ) ;
#126 = EDGE_CURVE ( 'NONE', #204, #295, #161, .T. ) ;
#127 = ORIENTED_EDGE ( 'NONE', *, *, #237, .T. ) ;
#128 = AXIS2_PLACEMENT_3D ( 'NONE', #37, #284, #282 ) ;
#129 = EDGE_CURVE ( 'NONE', #302, #57, #232, .T. ) ;
#130 = COORDINATED_UNIVERSAL_TIME_OFFSET ( 1, 0, .AHEAD. ) ;
#131 = LOCAL_TIME ( 14, 33, 40.00000000000000000, #130 ) ;
#132 = COORDINATED_UNIVERSAL_TIME_OFFSET ( 1, 0, .AHEAD. ) ;
#133 = DIRECTION ( 'NONE',  ( -1.000000000000000000, 0.000000000000000000, 0.000000000000000000 ) ) ;
#134 = DIRECTION ( 'NONE',  ( 1.000000000000000000, 0.000000000000000000, 0.000000000000000000 ) ) ;
#135 = PERSON ( 'NEURÈENÝ', 'NEURÈENÝ', 'NEURÈENÝ', ('NEURÈENÝ'), ('NEURÈENÝ'), ('NEURÈENÝ') ) ;
#136 = PERSON_AND_ORGANIZATION_ROLE ( 'creator' ) ;
#137 = CIRCLE ( 'NONE', #247, 4.099999999999999645 ) ;
#138 = LINE ( 'NONE', #235, #102 ) ;
#139 = CIRCLE ( 'NONE', #85, 7.000000000000000000 ) ;
#140 = APPLICATION_PROTOCOL_DEFINITION ( 'international standard', 'config_control_design', 1994, #27 ) ;
#141 = ORIENTED_EDGE ( 'NONE', *, *, #158, .F. ) ;
#142 = CC_DESIGN_DATE_AND_TIME_ASSIGNMENT ( #42, #143, ( #155 ) ) ;
#143 = DATE_TIME_ROLE ( 'classification_date' ) ;
#144 = ORIENTED_EDGE ( 'NONE', *, *, #71, .F. ) ;
#145 = CARTESIAN_POINT ( 'NONE',  ( -4.099999999999999645, 0.000000000000000000, 5.199999999999996625 ) ) ;
#146 = AXIS2_PLACEMENT_3D ( 'NONE', #48, #269, #268 ) ;
#147 = DIRECTION ( 'NONE',  ( 0.000000000000000000, 0.000000000000000000, 1.000000000000000000 ) ) ;
#148 = CARTESIAN_POINT ( 'NONE',  ( -4.299999999999998934, 5.265981236333617484E-16, 4.999999999999998224 ) ) ;
#149 = CC_DESIGN_PERSON_AND_ORGANIZATION_ASSIGNMENT ( #279, #19, ( #219 ) ) ;
#150 = DIRECTION ( 'NONE',  ( 1.000000000000000000, 0.000000000000000000, 0.000000000000000000 ) ) ;
#151 = AXIS2_PLACEMENT_3D ( 'NONE', #178, #63, #134 ) ;
#152 = DIRECTION ( 'NONE',  ( 0.000000000000000000, 0.000000000000000000, 1.000000000000000000 ) ) ;
#153 = CIRCLE ( 'NONE', #68, 4.099999999999999645 ) ;
#154 = EDGE_LOOP ( 'NONE', ( #23, #222, #156, #253 ) ) ;
#155 = SECURITY_CLASSIFICATION ( '', '', #59 ) ;
#156 = ORIENTED_EDGE ( 'NONE', *, *, #21, .F. ) ;
#157 = CARTESIAN_POINT ( 'NONE',  ( 0.000000000000000000, 0.000000000000000000, 105.0000000000000142 ) ) ;
#158 = EDGE_CURVE ( 'NONE', #159, #176, #138, .T. ) ;
#159 = VERTEX_POINT ( 'NONE', #119 ) ;
#160 = FACE_OUTER_BOUND ( 'NONE', #18, .T. ) ;
#161 = CIRCLE ( 'NONE', #151, 7.000000000000000000 ) ;
#162 = LINE ( 'NONE', #41, #242 ) ;
#163 = PRODUCT_DEFINITION ( 'NEZNÁMÝ', '', #219, #81 ) ;
#164 = AXIS2_PLACEMENT_3D ( 'NONE', #267, #152, #77 ) ;
#165 = APPROVAL_STATUS ( 'not_yet_approved' ) ;
#166 = DIRECTION ( 'NONE',  ( 0.000000000000000000, 0.000000000000000000, -1.000000000000000000 ) ) ;
#167 = FACE_OUTER_BOUND ( 'NONE', #196, .T. ) ;
#168 = CARTESIAN_POINT ( 'NONE',  ( 0.000000000000000000, 0.000000000000000000, 0.000000000000000000 ) ) ;
#169 = ADVANCED_FACE ( 'NONE', ( #294, #1 ), #3, .T. ) ;
#170 = CARTESIAN_POINT ( 'NONE',  ( -4.299999999999998934, 5.265981236333617484E-16, 5.199999999999996625 ) ) ;
#171 = CARTESIAN_POINT ( 'NONE',  ( 0.000000000000000000, 0.000000000000000000, 5.000000000000000000 ) ) ;
#172 = DIRECTION ( 'NONE',  ( 1.000000000000000000, 0.000000000000000000, 0.000000000000000000 ) ) ;
#173 = ADVANCED_FACE ( 'NONE', ( #167 ), #76, .T. ) ;
#174 = CC_DESIGN_APPROVAL ( #49, ( #155 ) ) ;
#175 = ORIENTED_EDGE ( 'NONE', *, *, #218, .T. ) ;
#176 = VERTEX_POINT ( 'NONE', #145 ) ;
#177 = DIRECTION ( 'NONE',  ( 1.000000000000000000, 0.000000000000000000, -0.000000000000000000 ) ) ;
#178 = CARTESIAN_POINT ( 'NONE',  ( 0.000000000000000000, 0.000000000000000000, 5.000000000000000000 ) ) ;
#179 = MECHANICAL_CONTEXT ( 'NONE', #9, 'mechanical' ) ;
#180 = FACE_OUTER_BOUND ( 'NONE', #241, .T. ) ;
#181 = EDGE_CURVE ( 'NONE', #295, #204, #202, .T. ) ;
#182 = ORIENTED_EDGE ( 'NONE', *, *, #228, .T. ) ;
#183 = CARTESIAN_POINT ( 'NONE',  ( 0.000000000000000000, 0.000000000000000000, 0.000000000000000000 ) ) ;
#184 = SHAPE_DEFINITION_REPRESENTATION ( #224, #58 ) ;
#185 = CYLINDRICAL_SURFACE ( 'NONE', #296, 7.000000000000000000 ) ;
#186 = DATE_AND_TIME ( #56, #51 ) ;
#187 = DIRECTION ( 'NONE',  ( 1.000000000000000000, 0.000000000000000000, -0.000000000000000000 ) ) ;
#188 = AXIS2_PLACEMENT_3D ( 'NONE', #198, #20, #166 ) ;
#189 = UNCERTAINTY_MEASURE_WITH_UNIT (LENGTH_MEASURE( 1.000000000000000082E-05 ), #103, 'distance_accuracy_value', 'NONE');
#190 = FACE_OUTER_BOUND ( 'NONE', #230, .T. ) ;
#191 = DIRECTION ( 'NONE',  ( -0.000000000000000000, -0.000000000000000000, -1.000000000000000000 ) ) ;
#192 = ORIENTED_EDGE ( 'NONE', *, *, #124, .F. ) ;
#193 = VERTEX_POINT ( 'NONE', #148 ) ;
#194 = APPROVAL ( #17, 'NEURÈENÝ' ) ;
#195 = TOROIDAL_SURFACE ( 'NONE', #289, 4.299999999999998934, 0.2000000000000000111 ) ;
#196 = EDGE_LOOP ( 'NONE', ( #144, #64, #250, #127 ) ) ;
#197 = DATE_AND_TIME ( #203, #131 ) ;
#198 = CARTESIAN_POINT ( 'NONE',  ( 4.299999999999998934, 0.000000000000000000, 5.199999999999996625 ) ) ;
#199 = DIRECTION ( 'NONE',  ( -0.000000000000000000, -0.000000000000000000, -1.000000000000000000 ) ) ;
#200 = DIRECTION ( 'NONE',  ( 1.000000000000000000, 0.000000000000000000, 0.000000000000000000 ) ) ;
#201 = CARTESIAN_POINT ( 'NONE',  ( 4.099999999999999645, 5.021051876504147385E-16, 105.0000000000000142 ) ) ;
#202 = CIRCLE ( 'NONE', #75, 7.000000000000000000 ) ;
#203 = CALENDAR_DATE ( 2022, 7, 7 ) ;
#204 = VERTEX_POINT ( 'NONE', #290 ) ;
#205 = APPLICATION_PROTOCOL_DEFINITION ( 'international standard', 'config_control_design', 1994, #9 ) ;
#206 = ORIENTED_EDGE ( 'NONE', *, *, #126, .F. ) ;
#207 = AXIS2_PLACEMENT_3D ( 'NONE', #171, #96, #292 ) ;
#208 = CIRCLE ( 'NONE', #188, 0.1999999999999996503 ) ;
#209 = PLANE ( 'NONE',  #217 ) ;
#210 = AXIS2_PLACEMENT_3D ( 'NONE', #170, #44, #30 ) ;
#211 = AXIS2_PLACEMENT_3D ( 'NONE', #257, #38, #200 ) ;
#212 = CARTESIAN_POINT ( 'NONE',  ( 0.000000000000000000, 0.000000000000000000, 5.000000000000000000 ) ) ;
#213 = ADVANCED_FACE ( 'NONE', ( #190 ), #209, .T. ) ;
#214 = CARTESIAN_POINT ( 'NONE',  ( -7.000000000000000000, 0.000000000000000000, 5.000000000000000000 ) ) ;
#215 = FACE_OUTER_BOUND ( 'NONE', #33, .T. ) ;
#216 = AXIS2_PLACEMENT_3D ( 'NONE', #183, #88, #177 ) ;
#217 = AXIS2_PLACEMENT_3D ( 'NONE', #47, #266, #187 ) ;
#218 = EDGE_CURVE ( 'NONE', #159, #302, #252, .T. ) ;
#219 = PRODUCT_DEFINITION_FORMATION_WITH_SPECIFIED_SOURCE ( 'LIBOVOLNÝ', '', #83, .NOT_KNOWN. ) ;
#220 = DIRECTION ( 'NONE',  ( 0.000000000000000000, 0.000000000000000000, 1.000000000000000000 ) ) ;
#221 =( NAMED_UNIT ( * ) SI_UNIT ( $, .STERADIAN. ) SOLID_ANGLE_UNIT ( ) );
#222 = ORIENTED_EDGE ( 'NONE', *, *, #270, .T. ) ;
#223 = ADVANCED_FACE ( 'NONE', ( #31 ), #195, .F. ) ;
#224 = PRODUCT_DEFINITION_SHAPE ( 'NONE', 'NONE',  #163 ) ;
#225 = ORIENTED_EDGE ( 'NONE', *, *, #270, .F. ) ;
#226 = ORIENTED_EDGE ( 'NONE', *, *, #113, .T. ) ;
#227 = APPROVAL_DATE_TIME ( #197, #97 ) ;
#228 = EDGE_CURVE ( 'NONE', #8, #112, #236, .T. ) ;
#229 =( GEOMETRIC_REPRESENTATION_CONTEXT ( 3 ) GLOBAL_UNCERTAINTY_ASSIGNED_CONTEXT ( ( #189 ) ) GLOBAL_UNIT_ASSIGNED_CONTEXT ( ( #103, #11, #221 ) ) REPRESENTATION_CONTEXT ( 'NONE', 'WORKASPACE' ) );
#230 = EDGE_LOOP ( 'NONE', ( #175, #274 ) ) ;
#231 = PERSON_AND_ORGANIZATION ( #135, #272 ) ;
#232 = LINE ( 'NONE', #201, #78 ) ;
#233 = AXIS2_PLACEMENT_3D ( 'NONE', #288, #25, #133 ) ;
#234 = PERSON_AND_ORGANIZATION ( #135, #272 ) ;
#235 = CARTESIAN_POINT ( 'NONE',  ( -4.099999999999999645, 0.000000000000000000, 105.0000000000000142 ) ) ;
#236 = CIRCLE ( 'NONE', #275, 7.000000000000000000 ) ;
#237 = EDGE_CURVE ( 'NONE', #112, #8, #139, .T. ) ;
#238 = DATE_AND_TIME ( #65, #104 ) ;
#239 = PLANE ( 'NONE',  #216 ) ;
#240 = COORDINATED_UNIVERSAL_TIME_OFFSET ( 1, 0, .AHEAD. ) ;
#241 = EDGE_LOOP ( 'NONE', ( #286, #304 ) ) ;
#242 = VECTOR ( 'NONE', #264, 1000.000000000000000 ) ;
#243 = DIRECTION ( 'NONE',  ( 0.000000000000000000, 0.000000000000000000, 1.000000000000000000 ) ) ;
#244 = DIRECTION ( 'NONE',  ( 0.000000000000000000, 0.000000000000000000, 1.000000000000000000 ) ) ;
#245 = DIRECTION ( 'NONE',  ( 1.000000000000000000, 0.000000000000000000, 0.000000000000000000 ) ) ;
#246 = CARTESIAN_POINT ( 'NONE',  ( 0.000000000000000000, 0.000000000000000000, 5.199999999999996625 ) ) ;
#247 = AXIS2_PLACEMENT_3D ( 'NONE', #60, #280, #66 ) ;
#248 = CIRCLE ( 'NONE', #210, 0.1999999999999996503 ) ;
#249 = CARTESIAN_POINT ( 'NONE',  ( 0.000000000000000000, 0.000000000000000000, 5.000000000000000000 ) ) ;
#250 = ORIENTED_EDGE ( 'NONE', *, *, #124, .T. ) ;
#251 = ORIENTED_EDGE ( 'NONE', *, *, #265, .T. ) ;
#252 = CIRCLE ( 'NONE', #54, 4.099999999999999645 ) ;
#253 = ORIENTED_EDGE ( 'NONE', *, *, #113, .F. ) ;
#254 = PERSON_AND_ORGANIZATION_ROLE ( 'classification_officer' ) ;
#255 = CARTESIAN_POINT ( 'NONE',  ( 4.099999999999999645, 5.021051876504147385E-16, 5.199999999999996625 ) ) ;
#256 = CYLINDRICAL_SURFACE ( 'NONE', #233, 4.099999999999999645 ) ;
#257 = CARTESIAN_POINT ( 'NONE',  ( 0.000000000000000000, 0.000000000000000000, 0.000000000000000000 ) ) ;
#258 = CYLINDRICAL_SURFACE ( 'NONE', #260, 4.099999999999999645 ) ;
#259 = EDGE_CURVE ( 'NONE', #302, #159, #262, .T. ) ;
#260 = AXIS2_PLACEMENT_3D ( 'NONE', #157, #199, #92 ) ;
#261 = CARTESIAN_POINT ( 'NONE',  ( 7.000000000000000000, 8.572527594031473190E-16, 5.000000000000000000 ) ) ;
#262 = CIRCLE ( 'NONE', #164, 4.099999999999999645 ) ;
#263 = APPROVAL_ROLE ( '' ) ;
#264 = DIRECTION ( 'NONE',  ( -0.000000000000000000, -0.000000000000000000, -1.000000000000000000 ) ) ;
#265 = EDGE_CURVE ( 'NONE', #176, #57, #153, .T. ) ;
#266 = DIRECTION ( 'NONE',  ( 0.000000000000000000, 0.000000000000000000, 1.000000000000000000 ) ) ;
#267 = CARTESIAN_POINT ( 'NONE',  ( 0.000000000000000000, 0.000000000000000000, 105.0000000000000142 ) ) ;
#268 = DIRECTION ( 'NONE',  ( -1.000000000000000000, 0.000000000000000000, 0.000000000000000000 ) ) ;
#269 = DIRECTION ( 'NONE',  ( -0.000000000000000000, -0.000000000000000000, -1.000000000000000000 ) ) ;
#270 = EDGE_CURVE ( 'NONE', #176, #193, #248, .T. ) ;
#271 = DIRECTION ( 'NONE',  ( 0.000000000000000000, 0.000000000000000000, 1.000000000000000000 ) ) ;
#272 = ORGANIZATION ( 'NEURÈENÝ', 'NEURÈENÝ', '' ) ;
#273 = ADVANCED_FACE ( 'NONE', ( #5 ), #185, .T. ) ;
#274 = ORIENTED_EDGE ( 'NONE', *, *, #259, .T. ) ;
#275 = AXIS2_PLACEMENT_3D ( 'NONE', #72, #244, #6 ) ;
#276 = CC_DESIGN_APPROVAL ( #97, ( #163 ) ) ;
#277 = ADVANCED_FACE ( 'NONE', ( #215 ), #120, .F. ) ;
#278 = ORIENTED_EDGE ( 'NONE', *, *, #129, .T. ) ;
#279 = PERSON_AND_ORGANIZATION ( #135, #272 ) ;
#280 = DIRECTION ( 'NONE',  ( 0.000000000000000000, 0.000000000000000000, 1.000000000000000000 ) ) ;
#281 = APPROVAL_PERSON_ORGANIZATION ( #111, #194, #300 ) ;
#282 = DIRECTION ( 'NONE',  ( 1.000000000000000000, 0.000000000000000000, 0.000000000000000000 ) ) ;
#283 = EDGE_CURVE ( 'NONE', #193, #307, #95, .T. ) ;
#284 = DIRECTION ( 'NONE',  ( -0.000000000000000000, -0.000000000000000000, -1.000000000000000000 ) ) ;
#285 = COORDINATED_UNIVERSAL_TIME_OFFSET ( 1, 0, .AHEAD. ) ;
#286 = ORIENTED_EDGE ( 'NONE', *, *, #237, .F. ) ;
#287 = APPROVAL_STATUS ( 'not_yet_approved' ) ;
#288 = CARTESIAN_POINT ( 'NONE',  ( 0.000000000000000000, 0.000000000000000000, 105.0000000000000142 ) ) ;
#289 = AXIS2_PLACEMENT_3D ( 'NONE', #246, #220, #245 ) ;
#290 = CARTESIAN_POINT ( 'NONE',  ( 7.000000000000000000, 8.572527594031473190E-16, 5.000000000000000000 ) ) ;
#291 = DIRECTION ( 'NONE',  ( 0.000000000000000000, 0.000000000000000000, 1.000000000000000000 ) ) ;
#292 = DIRECTION ( 'NONE',  ( 1.000000000000000000, 0.000000000000000000, -0.000000000000000000 ) ) ;
#293 = AXIS2_PLACEMENT_3D ( 'NONE', #121, #100, #122 ) ;
#294 = FACE_BOUND ( 'NONE', #301, .T. ) ;
#295 = VERTEX_POINT ( 'NONE', #214 ) ;
#296 = AXIS2_PLACEMENT_3D ( 'NONE', #249, #123, #70 ) ;
#297 = LOCAL_TIME ( 14, 33, 40.00000000000000000, #132 ) ;
#298 = EDGE_LOOP ( 'NONE', ( #107, #117 ) ) ;
#299 = ORIENTED_EDGE ( 'NONE', *, *, #129, .F. ) ;
#300 = APPROVAL_ROLE ( '' ) ;
#301 = EDGE_LOOP ( 'NONE', ( #93, #115 ) ) ;
#302 = VERTEX_POINT ( 'NONE', #4 ) ;
#303 = APPROVAL_DATE_TIME ( #238, #194 ) ;
#304 = ORIENTED_EDGE ( 'NONE', *, *, #228, .F. ) ;
#305 = CALENDAR_DATE ( 2022, 7, 7 ) ;
#306 = CARTESIAN_POINT ( 'NONE',  ( 7.000000000000000000, 8.572527594031473190E-16, 0.000000000000000000 ) ) ;
#307 = VERTEX_POINT ( 'NONE', #99 ) ;
ENDSEC;
END-ISO-10303-21;
