ISO-10303-21;
HEADER;
FILE_DESCRIPTION (( 'STEP AP203' ),
    '1' );
FILE_NAME ('91a7.STEP',
    '2022-07-07T12:48:55',
    ( '' ),
    ( '' ),
    'SwSTEP 2.0',
    'SolidWorks 2019',
    '' );
FILE_SCHEMA (( 'CONFIG_CONTROL_DESIGN' ));
ENDSEC;

DATA;
#1 = CARTESIAN_POINT ( 'NONE',  ( 0.000000000000000000, 0.000000000000000000, 3.000000000000000000 ) ) ;
#2 = EDGE_CURVE ( 'NONE', #194, #264, #169, .T. ) ;
#3 = DIRECTION ( 'NONE',  ( 0.000000000000000000, 0.000000000000000000, -1.000000000000000000 ) ) ;
#4 = AXIS2_PLACEMENT_3D ( 'NONE', #265, #240, #212 ) ;
#5 = EDGE_LOOP ( 'NONE', ( #214, #146, #79, #55 ) ) ;
#6 = VERTEX_POINT ( 'NONE', #238 ) ;
#7 = CARTESIAN_POINT ( 'NONE',  ( 0.000000000000000000, 0.000000000000000000, 3.199999999999980638 ) ) ;
#8 = PRODUCT_DEFINITION_SHAPE ( 'NONE', 'NONE',  #139 ) ;
#9 = EDGE_LOOP ( 'NONE', ( #145, #102 ) ) ;
#10 = APPROVAL_PERSON_ORGANIZATION ( #137, #219, #133 ) ;
#11 = FACE_OUTER_BOUND ( 'NONE', #263, .T. ) ;
#12 = CIRCLE ( 'NONE', #235, 0.2000000000000000944 ) ;
#13 = DIRECTION ( 'NONE',  ( 0.000000000000000000, 0.000000000000000000, 1.000000000000000000 ) ) ;
#14 = EDGE_CURVE ( 'NONE', #192, #76, #198, .T. ) ;
#15 = DATE_TIME_ROLE ( 'creation_date' ) ;
#16 =( GEOMETRIC_REPRESENTATION_CONTEXT ( 3 ) GLOBAL_UNCERTAINTY_ASSIGNED_CONTEXT ( ( #157 ) ) GLOBAL_UNIT_ASSIGNED_CONTEXT ( ( #36, #130, #220 ) ) REPRESENTATION_CONTEXT ( 'NONE', 'WORKASPACE' ) );
#17 = CC_DESIGN_DATE_AND_TIME_ASSIGNMENT ( #109, #15, ( #139 ) ) ;
#18 = CC_DESIGN_APPROVAL ( #267, ( #92 ) ) ;
#19 = PERSON_AND_ORGANIZATION_ROLE ( 'creator' ) ;
#20 = DIRECTION ( 'NONE',  ( 0.000000000000000000, 0.000000000000000000, 1.000000000000000000 ) ) ;
#21 = EDGE_CURVE ( 'NONE', #288, #243, #39, .T. ) ;
#22 = CARTESIAN_POINT ( 'NONE',  ( 0.000000000000000000, 0.000000000000000000, 0.000000000000000000 ) ) ;
#23 = DIRECTION ( 'NONE',  ( -1.000000000000000000, 1.224646799147353207E-16, 0.000000000000000000 ) ) ;
#24 = AXIS2_PLACEMENT_3D ( 'NONE', #221, #129, #60 ) ;
#25 = CARTESIAN_POINT ( 'NONE',  ( 0.000000000000000000, 0.000000000000000000, 3.000000000000000000 ) ) ;
#26 = ADVANCED_FACE ( 'NONE', ( #262 ), #59, .T. ) ;
#27 = CARTESIAN_POINT ( 'NONE',  ( 0.000000000000000000, 0.000000000000000000, 3.199999999999980638 ) ) ;
#28 = DIRECTION ( 'NONE',  ( 0.000000000000000000, 0.000000000000000000, 1.000000000000000000 ) ) ;
#29 = ORIENTED_EDGE ( 'NONE', *, *, #77, .T. ) ;
#30 = ORIENTED_EDGE ( 'NONE', *, *, #62, .T. ) ;
#31 = ORIENTED_EDGE ( 'NONE', *, *, #232, .F. ) ;
#32 = EDGE_CURVE ( 'NONE', #218, #6, #213, .T. ) ;
#33 = CLOSED_SHELL ( 'NONE', ( #89, #275, #154, #259, #94, #244, #294, #26, #120 ) ) ;
#34 = EDGE_LOOP ( 'NONE', ( #101, #269 ) ) ;
#35 = DIRECTION ( 'NONE',  ( 0.000000000000000000, 0.000000000000000000, 1.000000000000000000 ) ) ;
#36 =( LENGTH_UNIT ( ) NAMED_UNIT ( * ) SI_UNIT ( .MILLI., .METRE. ) );
#37 = EDGE_LOOP ( 'NONE', ( #241, #84, #215, #176 ) ) ;
#38 = CARTESIAN_POINT ( 'NONE',  ( -4.000000000000000000, 0.000000000000000000, 0.000000000000000000 ) ) ;
#39 = CIRCLE ( 'NONE', #4, 2.300000000000000266 ) ;
#40 = CARTESIAN_POINT ( 'NONE',  ( 0.000000000000000000, 0.000000000000000000, 503.0000000000000000 ) ) ;
#41 = CIRCLE ( 'NONE', #56, 4.000000000000000000 ) ;
#42 = SECURITY_CLASSIFICATION_LEVEL ( 'unclassified' ) ;
#43 = PERSON_AND_ORGANIZATION_ROLE ( 'classification_officer' ) ;
#44 = CC_DESIGN_PERSON_AND_ORGANIZATION_ASSIGNMENT ( #251, #43, ( #273 ) ) ;
#45 = DIRECTION ( 'NONE',  ( 1.224646799147353207E-16, 1.000000000000000000, -0.000000000000000000 ) ) ;
#46 = COORDINATED_UNIVERSAL_TIME_OFFSET ( 1, 0, .AHEAD. ) ;
#47 = FACE_OUTER_BOUND ( 'NONE', #147, .T. ) ;
#48 = AXIS2_PLACEMENT_3D ( 'NONE', #121, #209, #3 ) ;
#49 = DIRECTION ( 'NONE',  ( 1.000000000000000000, 0.000000000000000000, 0.000000000000000000 ) ) ;
#50 = FACE_BOUND ( 'NONE', #34, .T. ) ;
#51 = ORGANIZATION ( 'NEURÈENÝ', 'NEURÈENÝ', '' ) ;
#52 = FACE_OUTER_BOUND ( 'NONE', #37, .T. ) ;
#53 = EDGE_LOOP ( 'NONE', ( #293, #82, #30, #152 ) ) ;
#54 = PRODUCT ( '91a7', '91a7', '', ( #216 ) ) ;
#55 = ORIENTED_EDGE ( 'NONE', *, *, #62, .F. ) ;
#56 = AXIS2_PLACEMENT_3D ( 'NONE', #307, #144, #119 ) ;
#57 = ORIENTED_EDGE ( 'NONE', *, *, #211, .T. ) ;
#58 = ORIENTED_EDGE ( 'NONE', *, *, #237, .F. ) ;
#59 = PLANE ( 'NONE',  #179 ) ;
#60 = DIRECTION ( 'NONE',  ( -1.000000000000000000, 0.000000000000000000, 0.000000000000000000 ) ) ;
#61 = CYLINDRICAL_SURFACE ( 'NONE', #217, 2.100000000000000089 ) ;
#62 = EDGE_CURVE ( 'NONE', #76, #288, #248, .T. ) ;
#63 = APPLICATION_PROTOCOL_DEFINITION ( 'international standard', 'config_control_design', 1994, #299 ) ;
#64 = DIRECTION ( 'NONE',  ( -1.000000000000000000, 0.000000000000000000, 0.000000000000000000 ) ) ;
#65 = PERSON_AND_ORGANIZATION_ROLE ( 'design_supplier' ) ;
#66 = APPROVAL_PERSON_ORGANIZATION ( #83, #85, #271 ) ;
#67 = VECTOR ( 'NONE', #242, 1000.000000000000000 ) ;
#68 = EDGE_CURVE ( 'NONE', #192, #243, #12, .T. ) ;
#69 = APPROVAL_DATE_TIME ( #274, #219 ) ;
#70 = CARTESIAN_POINT ( 'NONE',  ( -2.300000000000000266, 2.816687638038912549E-16, 2.999999999999990674 ) ) ;
#71 = CARTESIAN_POINT ( 'NONE',  ( -2.300000000000000266, 2.816687638038912549E-16, 3.199999999999980638 ) ) ;
#72 = AXIS2_PLACEMENT_3D ( 'NONE', #7, #28, #103 ) ;
#73 = DIRECTION ( 'NONE',  ( 0.000000000000000000, 0.000000000000000000, 1.000000000000000000 ) ) ;
#74 = DIRECTION ( 'NONE',  ( 0.000000000000000000, 0.000000000000000000, 1.000000000000000000 ) ) ;
#75 = VECTOR ( 'NONE', #161, 1000.000000000000000 ) ;
#76 = VERTEX_POINT ( 'NONE', #254 ) ;
#77 = EDGE_CURVE ( 'NONE', #203, #76, #230, .T. ) ;
#78 = ORIENTED_EDGE ( 'NONE', *, *, #177, .T. ) ;
#79 = ORIENTED_EDGE ( 'NONE', *, *, #21, .F. ) ;
#80 = ORIENTED_EDGE ( 'NONE', *, *, #187, .F. ) ;
#81 = AXIS2_PLACEMENT_3D ( 'NONE', #22, #115, #204 ) ;
#82 = ORIENTED_EDGE ( 'NONE', *, *, #211, .F. ) ;
#83 = PERSON_AND_ORGANIZATION ( #224, #51 ) ;
#84 = ORIENTED_EDGE ( 'NONE', *, *, #32, .T. ) ;
#85 = APPROVAL ( #175, 'NEURÈENÝ' ) ;
#86 = CARTESIAN_POINT ( 'NONE',  ( 0.000000000000000000, 0.000000000000000000, 0.000000000000000000 ) ) ;
#87 = LOCAL_TIME ( 14, 48, 55.00000000000000000, #272 ) ;
#88 = DIRECTION ( 'NONE',  ( -0.000000000000000000, -0.000000000000000000, -1.000000000000000000 ) ) ;
#89 = ADVANCED_FACE ( 'NONE', ( #97 ), #90, .F. ) ;
#90 = TOROIDAL_SURFACE ( 'NONE', #260, 2.300000000000000266, 0.2000000000000000111 ) ;
#91 = PERSON_AND_ORGANIZATION ( #224, #51 ) ;
#92 = PRODUCT_DEFINITION_FORMATION_WITH_SPECIFIED_SOURCE ( 'LIBOVOLNÝ', '', #54, .NOT_KNOWN. ) ;
#93 = DATE_TIME_ROLE ( 'classification_date' ) ;
#94 = ADVANCED_FACE ( 'NONE', ( #50, #283 ), #188, .T. ) ;
#95 = DIRECTION ( 'NONE',  ( -0.000000000000000000, -0.000000000000000000, -1.000000000000000000 ) ) ;
#96 = CARTESIAN_POINT ( 'NONE',  ( 0.000000000000000000, 0.000000000000000000, 0.000000000000000000 ) ) ;
#97 = FACE_OUTER_BOUND ( 'NONE', #5, .T. ) ;
#98 = DIRECTION ( 'NONE',  ( 1.000000000000000000, 0.000000000000000000, 0.000000000000000000 ) ) ;
#99 = CARTESIAN_POINT ( 'NONE',  ( -2.100000000000000089, 0.000000000000000000, 503.0000000000000000 ) ) ;
#100 = CC_DESIGN_PERSON_AND_ORGANIZATION_ASSIGNMENT ( #156, #155, ( #139 ) ) ;
#101 = ORIENTED_EDGE ( 'NONE', *, *, #21, .T. ) ;
#102 = ORIENTED_EDGE ( 'NONE', *, *, #237, .T. ) ;
#103 = DIRECTION ( 'NONE',  ( 1.000000000000000000, 0.000000000000000000, 0.000000000000000000 ) ) ;
#104 = LOCAL_TIME ( 14, 48, 55.00000000000000000, #246 ) ;
#105 = DIRECTION ( 'NONE',  ( 1.000000000000000000, 0.000000000000000000, 0.000000000000000000 ) ) ;
#106 = VECTOR ( 'NONE', #208, 1000.000000000000000 ) ;
#107 = APPROVAL_DATE_TIME ( #127, #85 ) ;
#108 = DESIGN_CONTEXT ( 'detailed design', #299, 'design' ) ;
#109 = DATE_AND_TIME ( #247, #104 ) ;
#110 = CYLINDRICAL_SURFACE ( 'NONE', #296, 2.100000000000000089 ) ;
#111 = FACE_OUTER_BOUND ( 'NONE', #193, .T. ) ;
#112 = DATE_AND_TIME ( #302, #189 ) ;
#113 = AXIS2_PLACEMENT_3D ( 'NONE', #27, #73, #202 ) ;
#114 = DIRECTION ( 'NONE',  ( 1.000000000000000000, 0.000000000000000000, 0.000000000000000000 ) ) ;
#115 = DIRECTION ( 'NONE',  ( 0.000000000000000000, 0.000000000000000000, 1.000000000000000000 ) ) ;
#116 = CARTESIAN_POINT ( 'NONE',  ( 0.000000000000000000, 0.000000000000000000, 503.0000000000000000 ) ) ;
#117 = CIRCLE ( 'NONE', #205, 4.000000000000000000 ) ;
#118 = DIRECTION ( 'NONE',  ( 1.000000000000000000, 0.000000000000000000, 0.000000000000000000 ) ) ;
#119 = DIRECTION ( 'NONE',  ( 1.000000000000000000, 0.000000000000000000, 0.000000000000000000 ) ) ;
#120 = ADVANCED_FACE ( 'NONE', ( #185 ), #301, .F. ) ;
#121 = CARTESIAN_POINT ( 'NONE',  ( 2.300000000000000266, 0.000000000000000000, 3.199999999999980638 ) ) ;
#122 = CARTESIAN_POINT ( 'NONE',  ( -4.000000000000000000, 0.000000000000000000, 3.000000000000000000 ) ) ;
#123 = DIRECTION ( 'NONE',  ( 1.000000000000000000, 0.000000000000000000, -0.000000000000000000 ) ) ;
#124 = ORIENTED_EDGE ( 'NONE', *, *, #187, .T. ) ;
#125 = ORIENTED_EDGE ( 'NONE', *, *, #222, .F. ) ;
#126 = AXIS2_PLACEMENT_3D ( 'NONE', #234, #135, #118 ) ;
#127 = DATE_AND_TIME ( #153, #233 ) ;
#128 = AXIS2_PLACEMENT_3D ( 'NONE', #231, #280, #206 ) ;
#129 = DIRECTION ( 'NONE',  ( -0.000000000000000000, -0.000000000000000000, -1.000000000000000000 ) ) ;
#130 =( NAMED_UNIT ( * ) PLANE_ANGLE_UNIT ( ) SI_UNIT ( $, .RADIAN. ) );
#131 = APPROVAL_PERSON_ORGANIZATION ( #197, #267, #180 ) ;
#132 = DIRECTION ( 'NONE',  ( 1.000000000000000000, 0.000000000000000000, 0.000000000000000000 ) ) ;
#133 = APPROVAL_ROLE ( '' ) ;
#134 = EDGE_CURVE ( 'NONE', #243, #288, #225, .T. ) ;
#135 = DIRECTION ( 'NONE',  ( 0.000000000000000000, 0.000000000000000000, 1.000000000000000000 ) ) ;
#136 = VECTOR ( 'NONE', #149, 1000.000000000000000 ) ;
#137 = PERSON_AND_ORGANIZATION ( #224, #51 ) ;
#138 = PLANE ( 'NONE',  #81 ) ;
#139 = PRODUCT_DEFINITION ( 'NEZNÁMÝ', '', #92, #108 ) ;
#140 = APPLICATION_CONTEXT ( 'configuration controlled 3d designs of mechanical parts and assemblies' ) ;
#141 = CARTESIAN_POINT ( 'NONE',  ( 4.000000000000000000, 4.898587196589412829E-16, 3.000000000000000000 ) ) ;
#142 = DIRECTION ( 'NONE',  ( -1.000000000000000000, 0.000000000000000000, 0.000000000000000000 ) ) ;
#143 = CC_DESIGN_APPROVAL ( #219, ( #273 ) ) ;
#144 = DIRECTION ( 'NONE',  ( 0.000000000000000000, 0.000000000000000000, 1.000000000000000000 ) ) ;
#145 = ORIENTED_EDGE ( 'NONE', *, *, #195, .T. ) ;
#146 = ORIENTED_EDGE ( 'NONE', *, *, #68, .T. ) ;
#147 = EDGE_LOOP ( 'NONE', ( #289, #125 ) ) ;
#148 = CIRCLE ( 'NONE', #171, 2.100000000000000089 ) ;
#149 = DIRECTION ( 'NONE',  ( -0.000000000000000000, -0.000000000000000000, -1.000000000000000000 ) ) ;
#150 = VERTEX_POINT ( 'NONE', #306 ) ;
#151 = CARTESIAN_POINT ( 'NONE',  ( 4.000000000000000000, 4.898587196589412829E-16, 3.000000000000000000 ) ) ;
#152 = ORIENTED_EDGE ( 'NONE', *, *, #134, .F. ) ;
#153 = CALENDAR_DATE ( 2022, 7, 7 ) ;
#154 = ADVANCED_FACE ( 'NONE', ( #52 ), #163, .T. ) ;
#155 = PERSON_AND_ORGANIZATION_ROLE ( 'creator' ) ;
#156 = PERSON_AND_ORGANIZATION ( #224, #51 ) ;
#157 = UNCERTAINTY_MEASURE_WITH_UNIT (LENGTH_MEASURE( 1.000000000000000082E-05 ), #36, 'distance_accuracy_value', 'NONE');
#158 = CALENDAR_DATE ( 2022, 7, 7 ) ;
#159 = CIRCLE ( 'NONE', #113, 2.100000000000000089 ) ;
#160 = APPROVAL_STATUS ( 'not_yet_approved' ) ;
#161 = DIRECTION ( 'NONE',  ( -0.000000000000000000, -0.000000000000000000, -1.000000000000000000 ) ) ;
#162 = CARTESIAN_POINT ( 'NONE',  ( 0.000000000000000000, 0.000000000000000000, 3.199999999999980638 ) ) ;
#163 = CYLINDRICAL_SURFACE ( 'NONE', #210, 4.000000000000000000 ) ;
#164 = DIRECTION ( 'NONE',  ( 1.000000000000000000, 0.000000000000000000, 0.000000000000000000 ) ) ;
#165 = CARTESIAN_POINT ( 'NONE',  ( 0.000000000000000000, 0.000000000000000000, 3.199999999999980638 ) ) ;
#166 = CC_DESIGN_SECURITY_CLASSIFICATION ( #273, ( #92 ) ) ;
#167 = PRODUCT_RELATED_PRODUCT_CATEGORY ( 'detail', '', ( #54 ) ) ;
#168 = ORIENTED_EDGE ( 'NONE', *, *, #250, .T. ) ;
#169 = LINE ( 'NONE', #122, #136 ) ;
#170 = ORIENTED_EDGE ( 'NONE', *, *, #195, .F. ) ;
#171 = AXIS2_PLACEMENT_3D ( 'NONE', #116, #277, #164 ) ;
#172 = ADVANCED_BREP_SHAPE_REPRESENTATION ( '91a7', ( #278, #184 ), #16 ) ;
#173 = ORIENTED_EDGE ( 'NONE', *, *, #2, .T. ) ;
#174 = DIRECTION ( 'NONE',  ( 0.000000000000000000, 0.000000000000000000, 1.000000000000000000 ) ) ;
#175 = APPROVAL_STATUS ( 'not_yet_approved' ) ;
#176 = ORIENTED_EDGE ( 'NONE', *, *, #2, .F. ) ;
#177 = EDGE_CURVE ( 'NONE', #218, #194, #256, .T. ) ;
#178 = FACE_OUTER_BOUND ( 'NONE', #286, .T. ) ;
#179 = AXIS2_PLACEMENT_3D ( 'NONE', #236, #35, #123 ) ;
#180 = APPROVAL_ROLE ( '' ) ;
#181 = CIRCLE ( 'NONE', #126, 4.000000000000000000 ) ;
#182 = CC_DESIGN_DATE_AND_TIME_ASSIGNMENT ( #112, #93, ( #273 ) ) ;
#183 = DIRECTION ( 'NONE',  ( 1.000000000000000000, 0.000000000000000000, 0.000000000000000000 ) ) ;
#184 = AXIS2_PLACEMENT_3D ( 'NONE', #86, #13, #105 ) ;
#185 = FACE_OUTER_BOUND ( 'NONE', #53, .T. ) ;
#186 = CARTESIAN_POINT ( 'NONE',  ( -4.000000000000000000, 0.000000000000000000, 3.000000000000000000 ) ) ;
#187 = EDGE_CURVE ( 'NONE', #194, #218, #181, .T. ) ;
#188 = PLANE ( 'NONE',  #128 ) ;
#189 = LOCAL_TIME ( 14, 48, 55.00000000000000000, #46 ) ;
#190 = ORIENTED_EDGE ( 'NONE', *, *, #14, .T. ) ;
#191 = ORIENTED_EDGE ( 'NONE', *, *, #32, .F. ) ;
#192 = VERTEX_POINT ( 'NONE', #207 ) ;
#193 = EDGE_LOOP ( 'NONE', ( #191, #80, #173, #168 ) ) ;
#194 = VERTEX_POINT ( 'NONE', #186 ) ;
#195 = EDGE_CURVE ( 'NONE', #150, #203, #284, .T. ) ;
#196 = CARTESIAN_POINT ( 'NONE',  ( 2.300000000000000266, 0.000000000000000000, 2.999999999999990674 ) ) ;
#197 = PERSON_AND_ORGANIZATION ( #224, #51 ) ;
#198 = CIRCLE ( 'NONE', #72, 2.100000000000000089 ) ;
#199 = PERSON_AND_ORGANIZATION ( #224, #51 ) ;
#200 = CC_DESIGN_PERSON_AND_ORGANIZATION_ASSIGNMENT ( #199, #19, ( #92 ) ) ;
#201 = AXIS2_PLACEMENT_3D ( 'NONE', #162, #74, #114 ) ;
#202 = DIRECTION ( 'NONE',  ( 1.000000000000000000, 0.000000000000000000, 0.000000000000000000 ) ) ;
#203 = VERTEX_POINT ( 'NONE', #253 ) ;
#204 = DIRECTION ( 'NONE',  ( 1.000000000000000000, 0.000000000000000000, -0.000000000000000000 ) ) ;
#205 = AXIS2_PLACEMENT_3D ( 'NONE', #96, #174, #132 ) ;
#206 = DIRECTION ( 'NONE',  ( 1.000000000000000000, 0.000000000000000000, -0.000000000000000000 ) ) ;
#207 = CARTESIAN_POINT ( 'NONE',  ( -2.100000000000000089, 0.000000000000000000, 3.199999999999980638 ) ) ;
#208 = DIRECTION ( 'NONE',  ( -0.000000000000000000, -0.000000000000000000, -1.000000000000000000 ) ) ;
#209 = DIRECTION ( 'NONE',  ( 0.000000000000000000, -1.000000000000000000, 0.000000000000000000 ) ) ;
#210 = AXIS2_PLACEMENT_3D ( 'NONE', #1, #95, #142 ) ;
#211 = EDGE_CURVE ( 'NONE', #76, #192, #159, .T. ) ;
#212 = DIRECTION ( 'NONE',  ( 1.000000000000000000, 0.000000000000000000, 0.000000000000000000 ) ) ;
#213 = LINE ( 'NONE', #151, #67 ) ;
#214 = ORIENTED_EDGE ( 'NONE', *, *, #14, .F. ) ;
#215 = ORIENTED_EDGE ( 'NONE', *, *, #222, .T. ) ;
#216 = MECHANICAL_CONTEXT ( 'NONE', #140, 'mechanical' ) ;
#217 = AXIS2_PLACEMENT_3D ( 'NONE', #223, #295, #266 ) ;
#218 = VERTEX_POINT ( 'NONE', #141 ) ;
#219 = APPROVAL ( #160, 'NEURÈENÝ' ) ;
#220 =( NAMED_UNIT ( * ) SI_UNIT ( $, .STERADIAN. ) SOLID_ANGLE_UNIT ( ) );
#221 = CARTESIAN_POINT ( 'NONE',  ( 0.000000000000000000, 0.000000000000000000, 3.000000000000000000 ) ) ;
#222 = EDGE_CURVE ( 'NONE', #6, #264, #41, .T. ) ;
#223 = CARTESIAN_POINT ( 'NONE',  ( 0.000000000000000000, 0.000000000000000000, 503.0000000000000000 ) ) ;
#224 = PERSON ( 'NEURÈENÝ', 'NEURÈENÝ', 'NEURÈENÝ', ('NEURÈENÝ'), ('NEURÈENÝ'), ('NEURÈENÝ') ) ;
#225 = CIRCLE ( 'NONE', #282, 2.300000000000000266 ) ;
#226 = CALENDAR_DATE ( 2022, 7, 7 ) ;
#227 = COORDINATED_UNIVERSAL_TIME_OFFSET ( 1, 0, .AHEAD. ) ;
#228 = CC_DESIGN_APPROVAL ( #85, ( #139 ) ) ;
#229 = CARTESIAN_POINT ( 'NONE',  ( 2.100000000000000089, 2.571758278209441957E-16, 503.0000000000000000 ) ) ;
#230 = LINE ( 'NONE', #229, #106 ) ;
#231 = CARTESIAN_POINT ( 'NONE',  ( 0.000000000000000000, 0.000000000000000000, 3.000000000000000000 ) ) ;
#232 = EDGE_CURVE ( 'NONE', #150, #192, #285, .T. ) ;
#233 = LOCAL_TIME ( 14, 48, 55.00000000000000000, #268 ) ;
#234 = CARTESIAN_POINT ( 'NONE',  ( 0.000000000000000000, 0.000000000000000000, 3.000000000000000000 ) ) ;
#235 = AXIS2_PLACEMENT_3D ( 'NONE', #71, #45, #23 ) ;
#236 = CARTESIAN_POINT ( 'NONE',  ( 0.000000000000000000, 0.000000000000000000, 503.0000000000000000 ) ) ;
#237 = EDGE_CURVE ( 'NONE', #203, #150, #148, .T. ) ;
#238 = CARTESIAN_POINT ( 'NONE',  ( 4.000000000000000000, 4.898587196589412829E-16, 0.000000000000000000 ) ) ;
#239 = ORIENTED_EDGE ( 'NONE', *, *, #77, .F. ) ;
#240 = DIRECTION ( 'NONE',  ( -0.000000000000000000, -0.000000000000000000, -1.000000000000000000 ) ) ;
#241 = ORIENTED_EDGE ( 'NONE', *, *, #177, .F. ) ;
#242 = DIRECTION ( 'NONE',  ( -0.000000000000000000, -0.000000000000000000, -1.000000000000000000 ) ) ;
#243 = VERTEX_POINT ( 'NONE', #70 ) ;
#244 = ADVANCED_FACE ( 'NONE', ( #47 ), #138, .F. ) ;
#245 = CYLINDRICAL_SURFACE ( 'NONE', #24, 4.000000000000000000 ) ;
#246 = COORDINATED_UNIVERSAL_TIME_OFFSET ( 1, 0, .AHEAD. ) ;
#247 = CALENDAR_DATE ( 2022, 7, 7 ) ;
#248 = CIRCLE ( 'NONE', #48, 0.2000000000000000944 ) ;
#249 = SHAPE_DEFINITION_REPRESENTATION ( #8, #172 ) ;
#250 = EDGE_CURVE ( 'NONE', #264, #6, #117, .T. ) ;
#251 = PERSON_AND_ORGANIZATION ( #224, #51 ) ;
#252 = DIRECTION ( 'NONE',  ( 1.000000000000000000, 0.000000000000000000, 0.000000000000000000 ) ) ;
#253 = CARTESIAN_POINT ( 'NONE',  ( 2.100000000000000089, 2.571758278209441957E-16, 503.0000000000000000 ) ) ;
#254 = CARTESIAN_POINT ( 'NONE',  ( 2.100000000000000089, 2.571758278209441957E-16, 3.199999999999980638 ) ) ;
#255 = DIRECTION ( 'NONE',  ( 0.000000000000000000, 0.000000000000000000, 1.000000000000000000 ) ) ;
#256 = CIRCLE ( 'NONE', #257, 4.000000000000000000 ) ;
#257 = AXIS2_PLACEMENT_3D ( 'NONE', #25, #20, #49 ) ;
#258 = DIRECTION ( 'NONE',  ( -0.000000000000000000, -0.000000000000000000, -1.000000000000000000 ) ) ;
#259 = ADVANCED_FACE ( 'NONE', ( #111 ), #245, .T. ) ;
#260 = AXIS2_PLACEMENT_3D ( 'NONE', #165, #255, #252 ) ;
#261 = ORIENTED_EDGE ( 'NONE', *, *, #232, .T. ) ;
#262 = FACE_OUTER_BOUND ( 'NONE', #9, .T. ) ;
#263 = EDGE_LOOP ( 'NONE', ( #239, #170, #261, #190 ) ) ;
#264 = VERTEX_POINT ( 'NONE', #38 ) ;
#265 = CARTESIAN_POINT ( 'NONE',  ( 0.000000000000000000, 0.000000000000000000, 3.000000000000000000 ) ) ;
#266 = DIRECTION ( 'NONE',  ( -1.000000000000000000, 0.000000000000000000, 0.000000000000000000 ) ) ;
#267 = APPROVAL ( #297, 'NEURÈENÝ' ) ;
#268 = COORDINATED_UNIVERSAL_TIME_OFFSET ( 1, 0, .AHEAD. ) ;
#269 = ORIENTED_EDGE ( 'NONE', *, *, #134, .T. ) ;
#270 = PERSON_AND_ORGANIZATION_ROLE ( 'design_owner' ) ;
#271 = APPROVAL_ROLE ( '' ) ;
#272 = COORDINATED_UNIVERSAL_TIME_OFFSET ( 1, 0, .AHEAD. ) ;
#273 = SECURITY_CLASSIFICATION ( '', '', #42 ) ;
#274 = DATE_AND_TIME ( #226, #300 ) ;
#275 = ADVANCED_FACE ( 'NONE', ( #178 ), #110, .T. ) ;
#276 = APPROVAL_DATE_TIME ( #298, #267 ) ;
#277 = DIRECTION ( 'NONE',  ( 0.000000000000000000, 0.000000000000000000, 1.000000000000000000 ) ) ;
#278 = MANIFOLD_SOLID_BREP ( 'Zaoblit1', #33 ) ;
#279 = CC_DESIGN_PERSON_AND_ORGANIZATION_ASSIGNMENT ( #91, #65, ( #92 ) ) ;
#280 = DIRECTION ( 'NONE',  ( 0.000000000000000000, 0.000000000000000000, 1.000000000000000000 ) ) ;
#281 = DIRECTION ( 'NONE',  ( 0.000000000000000000, 0.000000000000000000, 1.000000000000000000 ) ) ;
#282 = AXIS2_PLACEMENT_3D ( 'NONE', #305, #258, #98 ) ;
#283 = FACE_OUTER_BOUND ( 'NONE', #287, .T. ) ;
#284 = CIRCLE ( 'NONE', #290, 2.100000000000000089 ) ;
#285 = LINE ( 'NONE', #99, #75 ) ;
#286 = EDGE_LOOP ( 'NONE', ( #58, #29, #57, #31 ) ) ;
#287 = EDGE_LOOP ( 'NONE', ( #124, #78 ) ) ;
#288 = VERTEX_POINT ( 'NONE', #196 ) ;
#289 = ORIENTED_EDGE ( 'NONE', *, *, #250, .F. ) ;
#290 = AXIS2_PLACEMENT_3D ( 'NONE', #303, #281, #183 ) ;
#291 = APPLICATION_PROTOCOL_DEFINITION ( 'international standard', 'config_control_design', 1994, #140 ) ;
#292 = PERSON_AND_ORGANIZATION ( #224, #51 ) ;
#293 = ORIENTED_EDGE ( 'NONE', *, *, #68, .F. ) ;
#294 = ADVANCED_FACE ( 'NONE', ( #11 ), #61, .T. ) ;
#295 = DIRECTION ( 'NONE',  ( -0.000000000000000000, -0.000000000000000000, -1.000000000000000000 ) ) ;
#296 = AXIS2_PLACEMENT_3D ( 'NONE', #40, #88, #64 ) ;
#297 = APPROVAL_STATUS ( 'not_yet_approved' ) ;
#298 = DATE_AND_TIME ( #158, #87 ) ;
#299 = APPLICATION_CONTEXT ( 'configuration controlled 3d designs of mechanical parts and assemblies' ) ;
#300 = LOCAL_TIME ( 14, 48, 55.00000000000000000, #227 ) ;
#301 = TOROIDAL_SURFACE ( 'NONE', #201, 2.300000000000000266, 0.2000000000000000111 ) ;
#302 = CALENDAR_DATE ( 2022, 7, 7 ) ;
#303 = CARTESIAN_POINT ( 'NONE',  ( 0.000000000000000000, 0.000000000000000000, 503.0000000000000000 ) ) ;
#304 = CC_DESIGN_PERSON_AND_ORGANIZATION_ASSIGNMENT ( #292, #270, ( #54 ) ) ;
#305 = CARTESIAN_POINT ( 'NONE',  ( 0.000000000000000000, 0.000000000000000000, 3.000000000000000000 ) ) ;
#306 = CARTESIAN_POINT ( 'NONE',  ( -2.100000000000000089, 0.000000000000000000, 503.0000000000000000 ) ) ;
#307 = CARTESIAN_POINT ( 'NONE',  ( 0.000000000000000000, 0.000000000000000000, 0.000000000000000000 ) ) ;
ENDSEC;
END-ISO-10303-21;
