ISO-10303-21;
HEADER;
FILE_DESCRIPTION (( 'STEP AP203' ),
    '1' );
FILE_NAME ('cec7.STEP',
    '2023-02-12T11:18:27',
    ( '' ),
    ( '' ),
    'SwSTEP 2.0',
    'SolidWorks 2019',
    '' );
FILE_SCHEMA (( 'CONFIG_CONTROL_DESIGN' ));
ENDSEC;

DATA;
#1 = PRODUCT_DEFINITION ( 'NEZNÁMÝ', '', #58, #108 ) ;
#2 = ORIENTED_EDGE ( 'NONE', *, *, #52, .T. ) ;
#3 = ORIENTED_EDGE ( 'NONE', *, *, #38, .F. ) ;
#4 = ORIENTED_EDGE ( 'NONE', *, *, #71, .F. ) ;
#5 = PLANE ( 'NONE',  #102 ) ;
#6 = APPROVAL_STATUS ( 'not_yet_approved' ) ;
#7 = PERSON_AND_ORGANIZATION_ROLE ( 'design_owner' ) ;
#8 = CARTESIAN_POINT ( 'NONE',  ( -7.000000000000000000, 0.000000000000000000, 0.000000000000000000 ) ) ;
#9 = DATE_AND_TIME ( #222, #236 ) ;
#10 = CARTESIAN_POINT ( 'NONE',  ( 0.000000000000000000, 0.000000000000000000, 0.000000000000000000 ) ) ;
#11 = COORDINATED_UNIVERSAL_TIME_OFFSET ( 1, 0, .AHEAD. ) ;
#12 = COORDINATED_UNIVERSAL_TIME_OFFSET ( 1, 0, .AHEAD. ) ;
#13 = CC_DESIGN_DATE_AND_TIME_ASSIGNMENT ( #74, #195, ( #1 ) ) ;
#14 = DIRECTION ( 'NONE',  ( -1.000000000000000000, 0.000000000000000000, 0.000000000000000000 ) ) ;
#15 = AXIS2_PLACEMENT_3D ( 'NONE', #246, #155, #158 ) ;
#16 = EDGE_CURVE ( 'NONE', #81, #237, #233, .T. ) ;
#17 =( NAMED_UNIT ( * ) SI_UNIT ( $, .STERADIAN. ) SOLID_ANGLE_UNIT ( ) );
#18 = MECHANICAL_CONTEXT ( 'NONE', #26, 'mechanical' ) ;
#19 = CIRCLE ( 'NONE', #36, 7.000000000000000000 ) ;
#20 = EDGE_CURVE ( 'NONE', #237, #49, #216, .T. ) ;
#21 = ORIENTED_EDGE ( 'NONE', *, *, #192, .T. ) ;
#22 = PERSON_AND_ORGANIZATION ( #63, #79 ) ;
#23 = APPLICATION_PROTOCOL_DEFINITION ( 'international standard', 'config_control_design', 1994, #26 ) ;
#24 = EDGE_LOOP ( 'NONE', ( #185, #152, #64, #3 ) ) ;
#25 = PERSON_AND_ORGANIZATION ( #63, #79 ) ;
#26 = APPLICATION_CONTEXT ( 'configuration controlled 3d designs of mechanical parts and assemblies' ) ;
#27 = ORIENTED_EDGE ( 'NONE', *, *, #71, .T. ) ;
#28 = CARTESIAN_POINT ( 'NONE',  ( 0.000000000000000000, 0.000000000000000000, 5.000000000000000000 ) ) ;
#29 = APPROVAL ( #6, 'NEURÈENÝ' ) ;
#30 = CARTESIAN_POINT ( 'NONE',  ( 0.000000000000000000, 0.000000000000000000, 160.0000000000000000 ) ) ;
#31 = CC_DESIGN_APPROVAL ( #218, ( #58 ) ) ;
#32 = DIRECTION ( 'NONE',  ( -0.000000000000000000, -0.000000000000000000, -1.000000000000000000 ) ) ;
#33 = PERSON_AND_ORGANIZATION ( #63, #79 ) ;
#34 =( NAMED_UNIT ( * ) PLANE_ANGLE_UNIT ( ) SI_UNIT ( $, .RADIAN. ) );
#35 = DIRECTION ( 'NONE',  ( -0.000000000000000000, -0.000000000000000000, -1.000000000000000000 ) ) ;
#36 = AXIS2_PLACEMENT_3D ( 'NONE', #191, #137, #116 ) ;
#37 = DIRECTION ( 'NONE',  ( 0.000000000000000000, 0.000000000000000000, 1.000000000000000000 ) ) ;
#38 = EDGE_CURVE ( 'NONE', #81, #83, #230, .T. ) ;
#39 = VECTOR ( 'NONE', #50, 1000.000000000000000 ) ;
#40 = APPROVAL_PERSON_ORGANIZATION ( #89, #29, #113 ) ;
#41 = ADVANCED_BREP_SHAPE_REPRESENTATION ( 'cec7', ( #201, #180 ), #150 ) ;
#42 = UNCERTAINTY_MEASURE_WITH_UNIT (LENGTH_MEASURE( 1.000000000000000082E-05 ), #217, 'distance_accuracy_value', 'NONE');
#43 = AXIS2_PLACEMENT_3D ( 'NONE', #213, #173, #179 ) ;
#44 = CIRCLE ( 'NONE', #15, 7.000000000000000000 ) ;
#45 = EDGE_LOOP ( 'NONE', ( #61, #47 ) ) ;
#46 = SECURITY_CLASSIFICATION_LEVEL ( 'unclassified' ) ;
#47 = ORIENTED_EDGE ( 'NONE', *, *, #59, .T. ) ;
#48 = ORIENTED_EDGE ( 'NONE', *, *, #140, .T. ) ;
#49 = VERTEX_POINT ( 'NONE', #114 ) ;
#50 = DIRECTION ( 'NONE',  ( -0.000000000000000000, -0.000000000000000000, -1.000000000000000000 ) ) ;
#51 = PERSON_AND_ORGANIZATION_ROLE ( 'creator' ) ;
#52 = EDGE_CURVE ( 'NONE', #188, #202, #156, .T. ) ;
#53 = DIRECTION ( 'NONE',  ( 0.000000000000000000, 0.000000000000000000, 1.000000000000000000 ) ) ;
#54 = CLOSED_SHELL ( 'NONE', ( #147, #106, #182, #250, #157, #228, #165 ) ) ;
#55 = AXIS2_PLACEMENT_3D ( 'NONE', #122, #53, #95 ) ;
#56 = PERSON_AND_ORGANIZATION ( #63, #79 ) ;
#57 = AXIS2_PLACEMENT_3D ( 'NONE', #28, #76, #247 ) ;
#58 = PRODUCT_DEFINITION_FORMATION_WITH_SPECIFIED_SOURCE ( 'LIBOVOLNÝ', '', #220, .NOT_KNOWN. ) ;
#59 = EDGE_CURVE ( 'NONE', #225, #188, #234, .T. ) ;
#60 = EDGE_CURVE ( 'NONE', #188, #225, #19, .T. ) ;
#61 = ORIENTED_EDGE ( 'NONE', *, *, #60, .T. ) ;
#62 = ORIENTED_EDGE ( 'NONE', *, *, #59, .F. ) ;
#63 = PERSON ( 'NEURÈENÝ', 'NEURÈENÝ', 'NEURÈENÝ', ('NEURÈENÝ'), ('NEURÈENÝ'), ('NEURÈENÝ') ) ;
#64 = ORIENTED_EDGE ( 'NONE', *, *, #112, .T. ) ;
#65 = SHAPE_DEFINITION_REPRESENTATION ( #105, #41 ) ;
#66 = ORIENTED_EDGE ( 'NONE', *, *, #112, .F. ) ;
#67 = CARTESIAN_POINT ( 'NONE',  ( 0.000000000000000000, 0.000000000000000000, 160.0000000000000000 ) ) ;
#68 = APPROVAL_DATE_TIME ( #205, #29 ) ;
#69 = PLANE ( 'NONE',  #184 ) ;
#70 = CIRCLE ( 'NONE', #43, 4.099999999999999645 ) ;
#71 = EDGE_CURVE ( 'NONE', #83, #49, #70, .T. ) ;
#72 = DIRECTION ( 'NONE',  ( -0.000000000000000000, -0.000000000000000000, -1.000000000000000000 ) ) ;
#73 = CARTESIAN_POINT ( 'NONE',  ( 7.000000000000000000, 8.572527594031473190E-16, 0.000000000000000000 ) ) ;
#74 = DATE_AND_TIME ( #121, #174 ) ;
#75 = DIRECTION ( 'NONE',  ( 1.000000000000000000, 0.000000000000000000, -0.000000000000000000 ) ) ;
#76 = DIRECTION ( 'NONE',  ( 0.000000000000000000, 0.000000000000000000, 1.000000000000000000 ) ) ;
#77 = AXIS2_PLACEMENT_3D ( 'NONE', #30, #221, #167 ) ;
#78 = CC_DESIGN_PERSON_AND_ORGANIZATION_ASSIGNMENT ( #22, #210, ( #92 ) ) ;
#79 = ORGANIZATION ( 'NEURÈENÝ', 'NEURÈENÝ', '' ) ;
#80 = EDGE_LOOP ( 'NONE', ( #62, #103, #206, #100 ) ) ;
#81 = VERTEX_POINT ( 'NONE', #136 ) ;
#82 = COORDINATED_UNIVERSAL_TIME_OFFSET ( 1, 0, .AHEAD. ) ;
#83 = VERTEX_POINT ( 'NONE', #232 ) ;
#84 = AXIS2_PLACEMENT_3D ( 'NONE', #227, #110, #181 ) ;
#85 = CALENDAR_DATE ( 2023, 12, 2 ) ;
#86 = EDGE_LOOP ( 'NONE', ( #4, #66 ) ) ;
#87 = DIRECTION ( 'NONE',  ( 0.000000000000000000, 0.000000000000000000, 1.000000000000000000 ) ) ;
#88 = LINE ( 'NONE', #176, #145 ) ;
#89 = PERSON_AND_ORGANIZATION ( #63, #79 ) ;
#90 = DIRECTION ( 'NONE',  ( 0.000000000000000000, 0.000000000000000000, 1.000000000000000000 ) ) ;
#91 = CARTESIAN_POINT ( 'NONE',  ( 0.000000000000000000, 0.000000000000000000, 160.0000000000000000 ) ) ;
#92 = SECURITY_CLASSIFICATION ( '', '', #46 ) ;
#93 = DIRECTION ( 'NONE',  ( -1.000000000000000000, 0.000000000000000000, 0.000000000000000000 ) ) ;
#94 = CYLINDRICAL_SURFACE ( 'NONE', #198, 4.099999999999999645 ) ;
#95 = DIRECTION ( 'NONE',  ( 1.000000000000000000, 0.000000000000000000, 0.000000000000000000 ) ) ;
#96 = CARTESIAN_POINT ( 'NONE',  ( 0.000000000000000000, 0.000000000000000000, 5.000000000000000000 ) ) ;
#97 = CC_DESIGN_PERSON_AND_ORGANIZATION_ASSIGNMENT ( #111, #7, ( #220 ) ) ;
#98 = VECTOR ( 'NONE', #197, 1000.000000000000000 ) ;
#99 = APPROVAL_ROLE ( '' ) ;
#100 = ORIENTED_EDGE ( 'NONE', *, *, #52, .F. ) ;
#101 = AXIS2_PLACEMENT_3D ( 'NONE', #96, #251, #253 ) ;
#102 = AXIS2_PLACEMENT_3D ( 'NONE', #91, #87, #170 ) ;
#103 = ORIENTED_EDGE ( 'NONE', *, *, #208, .T. ) ;
#104 = CYLINDRICAL_SURFACE ( 'NONE', #135, 4.099999999999999645 ) ;
#105 = PRODUCT_DEFINITION_SHAPE ( 'NONE', 'NONE',  #1 ) ;
#106 = ADVANCED_FACE ( 'NONE', ( #211 ), #193, .T. ) ;
#107 = ORIENTED_EDGE ( 'NONE', *, *, #16, .T. ) ;
#108 = DESIGN_CONTEXT ( 'detailed design', #138, 'design' ) ;
#109 = APPROVAL_PERSON_ORGANIZATION ( #241, #200, #99 ) ;
#110 = DIRECTION ( 'NONE',  ( 0.000000000000000000, 0.000000000000000000, 1.000000000000000000 ) ) ;
#111 = PERSON_AND_ORGANIZATION ( #63, #79 ) ;
#112 = EDGE_CURVE ( 'NONE', #49, #83, #245, .T. ) ;
#113 = APPROVAL_ROLE ( '' ) ;
#114 = CARTESIAN_POINT ( 'NONE',  ( 4.099999999999999645, 5.021051876504147385E-16, 5.000000000000000000 ) ) ;
#115 = FACE_OUTER_BOUND ( 'NONE', #239, .T. ) ;
#116 = DIRECTION ( 'NONE',  ( 1.000000000000000000, 0.000000000000000000, 0.000000000000000000 ) ) ;
#117 = CC_DESIGN_APPROVAL ( #200, ( #1 ) ) ;
#118 = APPROVAL_DATE_TIME ( #224, #200 ) ;
#119 = FACE_OUTER_BOUND ( 'NONE', #240, .T. ) ;
#120 = CARTESIAN_POINT ( 'NONE',  ( -4.099999999999999645, 0.000000000000000000, 160.0000000000000000 ) ) ;
#121 = CALENDAR_DATE ( 2023, 12, 2 ) ;
#122 = CARTESIAN_POINT ( 'NONE',  ( 0.000000000000000000, 0.000000000000000000, 5.000000000000000000 ) ) ;
#123 = DIRECTION ( 'NONE',  ( 1.000000000000000000, 0.000000000000000000, -0.000000000000000000 ) ) ;
#124 = EDGE_CURVE ( 'NONE', #132, #202, #128, .T. ) ;
#125 = VECTOR ( 'NONE', #35, 1000.000000000000000 ) ;
#126 = CIRCLE ( 'NONE', #77, 4.099999999999999645 ) ;
#127 = ORIENTED_EDGE ( 'NONE', *, *, #16, .F. ) ;
#128 = CIRCLE ( 'NONE', #149, 7.000000000000000000 ) ;
#129 = LOCAL_TIME ( 12, 18, 27.00000000000000000, #11 ) ;
#130 = CC_DESIGN_PERSON_AND_ORGANIZATION_ASSIGNMENT ( #25, #171, ( #58 ) ) ;
#131 = ORIENTED_EDGE ( 'NONE', *, *, #208, .F. ) ;
#132 = VERTEX_POINT ( 'NONE', #73 ) ;
#133 = DIRECTION ( 'NONE',  ( 1.000000000000000000, 0.000000000000000000, 0.000000000000000000 ) ) ;
#134 = CYLINDRICAL_SURFACE ( 'NONE', #143, 7.000000000000000000 ) ;
#135 = AXIS2_PLACEMENT_3D ( 'NONE', #209, #212, #93 ) ;
#136 = CARTESIAN_POINT ( 'NONE',  ( -4.099999999999999645, 0.000000000000000000, 160.0000000000000000 ) ) ;
#137 = DIRECTION ( 'NONE',  ( 0.000000000000000000, 0.000000000000000000, 1.000000000000000000 ) ) ;
#138 = APPLICATION_CONTEXT ( 'configuration controlled 3d designs of mechanical parts and assemblies' ) ;
#139 = FACE_OUTER_BOUND ( 'NONE', #168, .T. ) ;
#140 = EDGE_CURVE ( 'NONE', #237, #81, #126, .T. ) ;
#141 = COORDINATED_UNIVERSAL_TIME_OFFSET ( 1, 0, .AHEAD. ) ;
#142 = PLANE ( 'NONE',  #194 ) ;
#143 = AXIS2_PLACEMENT_3D ( 'NONE', #242, #72, #231 ) ;
#144 = APPROVAL_STATUS ( 'not_yet_approved' ) ;
#145 = VECTOR ( 'NONE', #32, 1000.000000000000000 ) ;
#146 = ORIENTED_EDGE ( 'NONE', *, *, #20, .F. ) ;
#147 = ADVANCED_FACE ( 'NONE', ( #204 ), #104, .T. ) ;
#148 = CALENDAR_DATE ( 2023, 12, 2 ) ;
#149 = AXIS2_PLACEMENT_3D ( 'NONE', #10, #90, #244 ) ;
#150 =( GEOMETRIC_REPRESENTATION_CONTEXT ( 3 ) GLOBAL_UNCERTAINTY_ASSIGNED_CONTEXT ( ( #42 ) ) GLOBAL_UNIT_ASSIGNED_CONTEXT ( ( #217, #34, #17 ) ) REPRESENTATION_CONTEXT ( 'NONE', 'WORKASPACE' ) );
#151 = EDGE_LOOP ( 'NONE', ( #186, #223 ) ) ;
#152 = ORIENTED_EDGE ( 'NONE', *, *, #20, .T. ) ;
#153 = CARTESIAN_POINT ( 'NONE',  ( 4.099999999999999645, 5.021051876504147385E-16, 160.0000000000000000 ) ) ;
#154 = CARTESIAN_POINT ( 'NONE',  ( 7.000000000000000000, 8.572527594031473190E-16, 5.000000000000000000 ) ) ;
#155 = DIRECTION ( 'NONE',  ( 0.000000000000000000, 0.000000000000000000, 1.000000000000000000 ) ) ;
#156 = LINE ( 'NONE', #196, #39 ) ;
#157 = ADVANCED_FACE ( 'NONE', ( #178 ), #69, .F. ) ;
#158 = DIRECTION ( 'NONE',  ( 1.000000000000000000, 0.000000000000000000, 0.000000000000000000 ) ) ;
#159 = LOCAL_TIME ( 12, 18, 27.00000000000000000, #255 ) ;
#160 = APPROVAL_STATUS ( 'not_yet_approved' ) ;
#161 = FACE_OUTER_BOUND ( 'NONE', #45, .T. ) ;
#162 = CARTESIAN_POINT ( 'NONE',  ( 4.099999999999999645, 5.021051876504147385E-16, 160.0000000000000000 ) ) ;
#163 = CC_DESIGN_DATE_AND_TIME_ASSIGNMENT ( #9, #187, ( #92 ) ) ;
#164 = CC_DESIGN_APPROVAL ( #29, ( #92 ) ) ;
#165 = ADVANCED_FACE ( 'NONE', ( #139 ), #5, .T. ) ;
#166 = ORIENTED_EDGE ( 'NONE', *, *, #38, .T. ) ;
#167 = DIRECTION ( 'NONE',  ( 1.000000000000000000, 0.000000000000000000, 0.000000000000000000 ) ) ;
#168 = EDGE_LOOP ( 'NONE', ( #107, #48 ) ) ;
#169 = CARTESIAN_POINT ( 'NONE',  ( 0.000000000000000000, 0.000000000000000000, 0.000000000000000000 ) ) ;
#170 = DIRECTION ( 'NONE',  ( 1.000000000000000000, 0.000000000000000000, -0.000000000000000000 ) ) ;
#171 = PERSON_AND_ORGANIZATION_ROLE ( 'design_supplier' ) ;
#172 = APPLICATION_PROTOCOL_DEFINITION ( 'international standard', 'config_control_design', 1994, #138 ) ;
#173 = DIRECTION ( 'NONE',  ( 0.000000000000000000, 0.000000000000000000, 1.000000000000000000 ) ) ;
#174 = LOCAL_TIME ( 12, 18, 27.00000000000000000, #141 ) ;
#175 = CC_DESIGN_PERSON_AND_ORGANIZATION_ASSIGNMENT ( #235, #207, ( #58 ) ) ;
#176 = CARTESIAN_POINT ( 'NONE',  ( 7.000000000000000000, 8.572527594031473190E-16, 5.000000000000000000 ) ) ;
#177 = CALENDAR_DATE ( 2023, 12, 2 ) ;
#178 = FACE_OUTER_BOUND ( 'NONE', #151, .T. ) ;
#179 = DIRECTION ( 'NONE',  ( 1.000000000000000000, 0.000000000000000000, 0.000000000000000000 ) ) ;
#180 = AXIS2_PLACEMENT_3D ( 'NONE', #169, #226, #133 ) ;
#181 = DIRECTION ( 'NONE',  ( 1.000000000000000000, 0.000000000000000000, 0.000000000000000000 ) ) ;
#182 = ADVANCED_FACE ( 'NONE', ( #115 ), #134, .T. ) ;
#183 = ORIENTED_EDGE ( 'NONE', *, *, #60, .F. ) ;
#184 = AXIS2_PLACEMENT_3D ( 'NONE', #248, #189, #75 ) ;
#185 = ORIENTED_EDGE ( 'NONE', *, *, #140, .F. ) ;
#186 = ORIENTED_EDGE ( 'NONE', *, *, #192, .F. ) ;
#187 = DATE_TIME_ROLE ( 'classification_date' ) ;
#188 = VERTEX_POINT ( 'NONE', #190 ) ;
#189 = DIRECTION ( 'NONE',  ( 0.000000000000000000, 0.000000000000000000, 1.000000000000000000 ) ) ;
#190 = CARTESIAN_POINT ( 'NONE',  ( -7.000000000000000000, 0.000000000000000000, 5.000000000000000000 ) ) ;
#191 = CARTESIAN_POINT ( 'NONE',  ( 0.000000000000000000, 0.000000000000000000, 5.000000000000000000 ) ) ;
#192 = EDGE_CURVE ( 'NONE', #202, #132, #44, .T. ) ;
#193 = CYLINDRICAL_SURFACE ( 'NONE', #101, 7.000000000000000000 ) ;
#194 = AXIS2_PLACEMENT_3D ( 'NONE', #219, #37, #123 ) ;
#195 = DATE_TIME_ROLE ( 'creation_date' ) ;
#196 = CARTESIAN_POINT ( 'NONE',  ( -7.000000000000000000, 0.000000000000000000, 5.000000000000000000 ) ) ;
#197 = DIRECTION ( 'NONE',  ( -0.000000000000000000, -0.000000000000000000, -1.000000000000000000 ) ) ;
#198 = AXIS2_PLACEMENT_3D ( 'NONE', #67, #243, #14 ) ;
#199 = PRODUCT_RELATED_PRODUCT_CATEGORY ( 'detail', '', ( #220 ) ) ;
#200 = APPROVAL ( #144, 'NEURÈENÝ' ) ;
#201 = MANIFOLD_SOLID_BREP ( 'Pøidat vysunutím3', #54 ) ;
#202 = VERTEX_POINT ( 'NONE', #8 ) ;
#203 = APPROVAL_PERSON_ORGANIZATION ( #33, #218, #215 ) ;
#204 = FACE_OUTER_BOUND ( 'NONE', #24, .T. ) ;
#205 = DATE_AND_TIME ( #85, #129 ) ;
#206 = ORIENTED_EDGE ( 'NONE', *, *, #124, .T. ) ;
#207 = PERSON_AND_ORGANIZATION_ROLE ( 'creator' ) ;
#208 = EDGE_CURVE ( 'NONE', #225, #132, #88, .T. ) ;
#209 = CARTESIAN_POINT ( 'NONE',  ( 0.000000000000000000, 0.000000000000000000, 160.0000000000000000 ) ) ;
#210 = PERSON_AND_ORGANIZATION_ROLE ( 'classification_officer' ) ;
#211 = FACE_OUTER_BOUND ( 'NONE', #80, .T. ) ;
#212 = DIRECTION ( 'NONE',  ( -0.000000000000000000, -0.000000000000000000, -1.000000000000000000 ) ) ;
#213 = CARTESIAN_POINT ( 'NONE',  ( 0.000000000000000000, 0.000000000000000000, 5.000000000000000000 ) ) ;
#214 = LOCAL_TIME ( 12, 18, 27.00000000000000000, #12 ) ;
#215 = APPROVAL_ROLE ( '' ) ;
#216 = LINE ( 'NONE', #162, #98 ) ;
#217 =( LENGTH_UNIT ( ) NAMED_UNIT ( * ) SI_UNIT ( .MILLI., .METRE. ) );
#218 = APPROVAL ( #160, 'NEURÈENÝ' ) ;
#219 = CARTESIAN_POINT ( 'NONE',  ( 0.000000000000000000, 0.000000000000000000, 5.000000000000000000 ) ) ;
#220 = PRODUCT ( 'cec7', 'cec7', '', ( #18 ) ) ;
#221 = DIRECTION ( 'NONE',  ( 0.000000000000000000, 0.000000000000000000, 1.000000000000000000 ) ) ;
#222 = CALENDAR_DATE ( 2023, 12, 2 ) ;
#223 = ORIENTED_EDGE ( 'NONE', *, *, #124, .F. ) ;
#224 = DATE_AND_TIME ( #148, #159 ) ;
#225 = VERTEX_POINT ( 'NONE', #154 ) ;
#226 = DIRECTION ( 'NONE',  ( 0.000000000000000000, 0.000000000000000000, 1.000000000000000000 ) ) ;
#227 = CARTESIAN_POINT ( 'NONE',  ( 0.000000000000000000, 0.000000000000000000, 160.0000000000000000 ) ) ;
#228 = ADVANCED_FACE ( 'NONE', ( #119 ), #94, .T. ) ;
#229 = FACE_BOUND ( 'NONE', #86, .T. ) ;
#230 = LINE ( 'NONE', #120, #125 ) ;
#231 = DIRECTION ( 'NONE',  ( -1.000000000000000000, 0.000000000000000000, 0.000000000000000000 ) ) ;
#232 = CARTESIAN_POINT ( 'NONE',  ( -4.099999999999999645, 0.000000000000000000, 5.000000000000000000 ) ) ;
#233 = CIRCLE ( 'NONE', #84, 4.099999999999999645 ) ;
#234 = CIRCLE ( 'NONE', #55, 7.000000000000000000 ) ;
#235 = PERSON_AND_ORGANIZATION ( #63, #79 ) ;
#236 = LOCAL_TIME ( 12, 18, 27.00000000000000000, #82 ) ;
#237 = VERTEX_POINT ( 'NONE', #153 ) ;
#238 = CC_DESIGN_PERSON_AND_ORGANIZATION_ASSIGNMENT ( #56, #51, ( #1 ) ) ;
#239 = EDGE_LOOP ( 'NONE', ( #131, #183, #2, #21 ) ) ;
#240 = EDGE_LOOP ( 'NONE', ( #146, #127, #166, #27 ) ) ;
#241 = PERSON_AND_ORGANIZATION ( #63, #79 ) ;
#242 = CARTESIAN_POINT ( 'NONE',  ( 0.000000000000000000, 0.000000000000000000, 5.000000000000000000 ) ) ;
#243 = DIRECTION ( 'NONE',  ( -0.000000000000000000, -0.000000000000000000, -1.000000000000000000 ) ) ;
#244 = DIRECTION ( 'NONE',  ( 1.000000000000000000, 0.000000000000000000, 0.000000000000000000 ) ) ;
#245 = CIRCLE ( 'NONE', #57, 4.099999999999999645 ) ;
#246 = CARTESIAN_POINT ( 'NONE',  ( 0.000000000000000000, 0.000000000000000000, 0.000000000000000000 ) ) ;
#247 = DIRECTION ( 'NONE',  ( 1.000000000000000000, 0.000000000000000000, 0.000000000000000000 ) ) ;
#248 = CARTESIAN_POINT ( 'NONE',  ( 0.000000000000000000, 0.000000000000000000, 0.000000000000000000 ) ) ;
#249 = DATE_AND_TIME ( #177, #214 ) ;
#250 = ADVANCED_FACE ( 'NONE', ( #229, #161 ), #142, .T. ) ;
#251 = DIRECTION ( 'NONE',  ( -0.000000000000000000, -0.000000000000000000, -1.000000000000000000 ) ) ;
#252 = APPROVAL_DATE_TIME ( #249, #218 ) ;
#253 = DIRECTION ( 'NONE',  ( -1.000000000000000000, 0.000000000000000000, 0.000000000000000000 ) ) ;
#254 = CC_DESIGN_SECURITY_CLASSIFICATION ( #92, ( #58 ) ) ;
#255 = COORDINATED_UNIVERSAL_TIME_OFFSET ( 1, 0, .AHEAD. ) ;
ENDSEC;
END-ISO-10303-21;
