ISO-10303-21;
HEADER;
FILE_DESCRIPTION (( 'STEP AP203' ),
    '1' );
FILE_NAME ('79e6.STEP',
    '2022-07-07T12:41:46',
    ( '' ),
    ( '' ),
    'SwSTEP 2.0',
    'SolidWorks 2019',
    '' );
FILE_SCHEMA (( 'CONFIG_CONTROL_DESIGN' ));
ENDSEC;

DATA;
#1 = CC_DESIGN_APPROVAL ( #91, ( #116 ) ) ;
#2 = ORIENTED_EDGE ( 'NONE', *, *, #247, .F. ) ;
#3 = ORIENTED_EDGE ( 'NONE', *, *, #215, .T. ) ;
#4 = MANIFOLD_SOLID_BREP ( 'Zaoblit1', #102 ) ;
#5 = ORIENTED_EDGE ( 'NONE', *, *, #99, .T. ) ;
#6 = DIRECTION ( 'NONE',  ( -0.000000000000000000, -0.000000000000000000, -1.000000000000000000 ) ) ;
#7 = ORIENTED_EDGE ( 'NONE', *, *, #259, .F. ) ;
#8 = LINE ( 'NONE', #209, #70 ) ;
#9 =( NAMED_UNIT ( * ) SI_UNIT ( $, .STERADIAN. ) SOLID_ANGLE_UNIT ( ) );
#10 = DIRECTION ( 'NONE',  ( -1.000000000000000000, 0.000000000000000000, 0.000000000000000000 ) ) ;
#11 = DIRECTION ( 'NONE',  ( 0.000000000000000000, 0.000000000000000000, 1.000000000000000000 ) ) ;
#12 =( LENGTH_UNIT ( ) NAMED_UNIT ( * ) SI_UNIT ( .MILLI., .METRE. ) );
#13 = EDGE_CURVE ( 'NONE', #239, #72, #120, .T. ) ;
#14 = PERSON_AND_ORGANIZATION_ROLE ( 'design_owner' ) ;
#15 = DATE_AND_TIME ( #167, #138 ) ;
#16 = AXIS2_PLACEMENT_3D ( 'NONE', #207, #74, #108 ) ;
#17 = AXIS2_PLACEMENT_3D ( 'NONE', #242, #53, #264 ) ;
#18 = DATE_TIME_ROLE ( 'creation_date' ) ;
#19 = VERTEX_POINT ( 'NONE', #178 ) ;
#20 = ORIENTED_EDGE ( 'NONE', *, *, #259, .T. ) ;
#21 = VERTEX_POINT ( 'NONE', #262 ) ;
#22 = CYLINDRICAL_SURFACE ( 'NONE', #187, 3.000000000000000444 ) ;
#23 = AXIS2_PLACEMENT_3D ( 'NONE', #161, #251, #185 ) ;
#24 = ORIENTED_EDGE ( 'NONE', *, *, #263, .F. ) ;
#25 = DIRECTION ( 'NONE',  ( 1.000000000000000000, 0.000000000000000000, 0.000000000000000000 ) ) ;
#26 = ORIENTED_EDGE ( 'NONE', *, *, #263, .T. ) ;
#27 = DIRECTION ( 'NONE',  ( 0.000000000000000000, 0.000000000000000000, 1.000000000000000000 ) ) ;
#28 = DIRECTION ( 'NONE',  ( 0.000000000000000000, -1.000000000000000000, 0.000000000000000000 ) ) ;
#29 = ADVANCED_FACE ( 'NONE', ( #275 ), #43, .F. ) ;
#30 = CARTESIAN_POINT ( 'NONE',  ( 0.000000000000000000, 0.000000000000000000, 5.199999999999982414 ) ) ;
#31 = DIRECTION ( 'NONE',  ( -1.000000000000000000, 0.000000000000000000, 0.000000000000000000 ) ) ;
#32 = CARTESIAN_POINT ( 'NONE',  ( 0.000000000000000000, 0.000000000000000000, 405.0000000000000000 ) ) ;
#33 = DIRECTION ( 'NONE',  ( 1.000000000000000000, 0.000000000000000000, 0.000000000000000000 ) ) ;
#34 = PERSON_AND_ORGANIZATION ( #305, #238 ) ;
#35 = VECTOR ( 'NONE', #271, 1000.000000000000000 ) ;
#36 = DATE_AND_TIME ( #257, #266 ) ;
#37 = DATE_AND_TIME ( #303, #50 ) ;
#38 = CC_DESIGN_PERSON_AND_ORGANIZATION_ASSIGNMENT ( #214, #235, ( #219 ) ) ;
#39 = AXIS2_PLACEMENT_3D ( 'NONE', #162, #295, #10 ) ;
#40 = DIRECTION ( 'NONE',  ( 0.000000000000000000, 0.000000000000000000, 1.000000000000000000 ) ) ;
#41 = AXIS2_PLACEMENT_3D ( 'NONE', #234, #40, #87 ) ;
#42 = ADVANCED_FACE ( 'NONE', ( #55 ), #98, .T. ) ;
#43 = TOROIDAL_SURFACE ( 'NONE', #16, 3.200000000000000622, 0.2000000000000000111 ) ;
#44 = EDGE_LOOP ( 'NONE', ( #46, #221, #125, #26 ) ) ;
#45 = VERTEX_POINT ( 'NONE', #272 ) ;
#46 = ORIENTED_EDGE ( 'NONE', *, *, #69, .F. ) ;
#47 = AXIS2_PLACEMENT_3D ( 'NONE', #82, #179, #250 ) ;
#48 = DIRECTION ( 'NONE',  ( 1.000000000000000000, 0.000000000000000000, 0.000000000000000000 ) ) ;
#49 = DESIGN_CONTEXT ( 'detailed design', #245, 'design' ) ;
#50 = LOCAL_TIME ( 14, 41, 46.00000000000000000, #190 ) ;
#51 = EDGE_LOOP ( 'NONE', ( #5, #146 ) ) ;
#52 = DIRECTION ( 'NONE',  ( 0.000000000000000000, 0.000000000000000000, 1.000000000000000000 ) ) ;
#53 = DIRECTION ( 'NONE',  ( -0.000000000000000000, -0.000000000000000000, -1.000000000000000000 ) ) ;
#54 = CARTESIAN_POINT ( 'NONE',  ( 3.000000000000000444, 3.673940397442060361E-16, 405.0000000000000000 ) ) ;
#55 = FACE_OUTER_BOUND ( 'NONE', #198, .T. ) ;
#56 = FACE_OUTER_BOUND ( 'NONE', #203, .T. ) ;
#57 = CARTESIAN_POINT ( 'NONE',  ( 0.000000000000000000, 0.000000000000000000, 5.000000000000000000 ) ) ;
#58 = CIRCLE ( 'NONE', #23, 3.000000000000000444 ) ;
#59 = CARTESIAN_POINT ( 'NONE',  ( 3.000000000000000444, 3.673940397442060361E-16, 5.199999999999982414 ) ) ;
#60 = CARTESIAN_POINT ( 'NONE',  ( 0.000000000000000000, 0.000000000000000000, 5.199999999999982414 ) ) ;
#61 = PERSON_AND_ORGANIZATION_ROLE ( 'classification_officer' ) ;
#62 = APPLICATION_PROTOCOL_DEFINITION ( 'international standard', 'config_control_design', 1994, #134 ) ;
#63 = CIRCLE ( 'NONE', #299, 0.2000000000000000944 ) ;
#64 = APPROVAL_DATE_TIME ( #37, #94 ) ;
#65 = PRODUCT_RELATED_PRODUCT_CATEGORY ( 'detail', '', ( #195 ) ) ;
#66 = APPROVAL_ROLE ( '' ) ;
#67 = CIRCLE ( 'NONE', #159, 3.200000000000000622 ) ;
#68 = CIRCLE ( 'NONE', #243, 3.000000000000000444 ) ;
#69 = EDGE_CURVE ( 'NONE', #267, #201, #8, .T. ) ;
#70 = VECTOR ( 'NONE', #293, 1000.000000000000000 ) ;
#71 = ORIENTED_EDGE ( 'NONE', *, *, #115, .T. ) ;
#72 = VERTEX_POINT ( 'NONE', #121 ) ;
#73 = DIRECTION ( 'NONE',  ( -0.000000000000000000, -0.000000000000000000, -1.000000000000000000 ) ) ;
#74 = DIRECTION ( 'NONE',  ( 0.000000000000000000, 0.000000000000000000, 1.000000000000000000 ) ) ;
#75 = EDGE_LOOP ( 'NONE', ( #241, #244 ) ) ;
#76 = DIRECTION ( 'NONE',  ( -0.000000000000000000, -0.000000000000000000, -1.000000000000000000 ) ) ;
#77 = TOROIDAL_SURFACE ( 'NONE', #306, 3.200000000000000622, 0.2000000000000000111 ) ;
#78 = CARTESIAN_POINT ( 'NONE',  ( -3.000000000000000444, 0.000000000000000000, 5.199999999999982414 ) ) ;
#79 = FACE_OUTER_BOUND ( 'NONE', #220, .T. ) ;
#80 = UNCERTAINTY_MEASURE_WITH_UNIT (LENGTH_MEASURE( 1.000000000000000082E-05 ), #12, 'distance_accuracy_value', 'NONE');
#81 = DIRECTION ( 'NONE',  ( -0.000000000000000000, -0.000000000000000000, -1.000000000000000000 ) ) ;
#82 = CARTESIAN_POINT ( 'NONE',  ( 0.000000000000000000, 0.000000000000000000, 405.0000000000000000 ) ) ;
#83 = ADVANCED_FACE ( 'NONE', ( #252 ), #22, .T. ) ;
#84 = PLANE ( 'NONE',  #175 ) ;
#85 = SHAPE_DEFINITION_REPRESENTATION ( #307, #197 ) ;
#86 = DIRECTION ( 'NONE',  ( 1.000000000000000000, 0.000000000000000000, -0.000000000000000000 ) ) ;
#87 = DIRECTION ( 'NONE',  ( 1.000000000000000000, 0.000000000000000000, 0.000000000000000000 ) ) ;
#88 = MECHANICAL_CONTEXT ( 'NONE', #134, 'mechanical' ) ;
#89 = COORDINATED_UNIVERSAL_TIME_OFFSET ( 1, 0, .AHEAD. ) ;
#90 = PERSON_AND_ORGANIZATION_ROLE ( 'creator' ) ;
#91 = APPROVAL ( #256, 'NEURÈENÝ' ) ;
#92 = CC_DESIGN_APPROVAL ( #140, ( #219 ) ) ;
#93 = ORIENTED_EDGE ( 'NONE', *, *, #118, .F. ) ;
#94 = APPROVAL ( #216, 'NEURÈENÝ' ) ;
#95 = ORIENTED_EDGE ( 'NONE', *, *, #99, .F. ) ;
#96 = VECTOR ( 'NONE', #81, 1000.000000000000000 ) ;
#97 = ORIENTED_EDGE ( 'NONE', *, *, #225, .F. ) ;
#98 = CYLINDRICAL_SURFACE ( 'NONE', #39, 6.000000000000000888 ) ;
#99 = EDGE_CURVE ( 'NONE', #21, #45, #210, .T. ) ;
#100 = ORIENTED_EDGE ( 'NONE', *, *, #13, .F. ) ;
#101 = DIRECTION ( 'NONE',  ( 1.000000000000000000, 0.000000000000000000, 0.000000000000000000 ) ) ;
#102 = CLOSED_SHELL ( 'NONE', ( #280, #176, #166, #42, #302, #196, #83, #122, #29 ) ) ;
#103 = CIRCLE ( 'NONE', #284, 6.000000000000000888 ) ;
#104 = DIRECTION ( 'NONE',  ( 1.000000000000000000, 0.000000000000000000, 0.000000000000000000 ) ) ;
#105 = DIRECTION ( 'NONE',  ( 1.000000000000000000, 0.000000000000000000, 0.000000000000000000 ) ) ;
#106 = AXIS2_PLACEMENT_3D ( 'NONE', #224, #227, #31 ) ;
#107 = PLANE ( 'NONE',  #200 ) ;
#108 = DIRECTION ( 'NONE',  ( 1.000000000000000000, 0.000000000000000000, 0.000000000000000000 ) ) ;
#109 = EDGE_CURVE ( 'NONE', #45, #21, #67, .T. ) ;
#110 =( GEOMETRIC_REPRESENTATION_CONTEXT ( 3 ) GLOBAL_UNCERTAINTY_ASSIGNED_CONTEXT ( ( #80 ) ) GLOBAL_UNIT_ASSIGNED_CONTEXT ( ( #12, #232, #9 ) ) REPRESENTATION_CONTEXT ( 'NONE', 'WORKASPACE' ) );
#111 = DATE_TIME_ROLE ( 'classification_date' ) ;
#112 = CC_DESIGN_PERSON_AND_ORGANIZATION_ASSIGNMENT ( #279, #168, ( #136 ) ) ;
#113 = APPROVAL_DATE_TIME ( #171, #140 ) ;
#114 = PERSON_AND_ORGANIZATION ( #305, #238 ) ;
#115 = EDGE_CURVE ( 'NONE', #201, #199, #237, .T. ) ;
#116 = SECURITY_CLASSIFICATION ( '', '', #194 ) ;
#117 = ORIENTED_EDGE ( 'NONE', *, *, #13, .T. ) ;
#118 = EDGE_CURVE ( 'NONE', #153, #239, #103, .T. ) ;
#119 = EDGE_LOOP ( 'NONE', ( #97, #7 ) ) ;
#120 = LINE ( 'NONE', #290, #191 ) ;
#121 = CARTESIAN_POINT ( 'NONE',  ( -6.000000000000000888, 0.000000000000000000, 0.000000000000000000 ) ) ;
#122 = ADVANCED_FACE ( 'NONE', ( #79 ), #128, .T. ) ;
#123 = ORIENTED_EDGE ( 'NONE', *, *, #115, .F. ) ;
#124 = CARTESIAN_POINT ( 'NONE',  ( 3.200000000000000622, 0.000000000000000000, 5.199999999999982414 ) ) ;
#125 = ORIENTED_EDGE ( 'NONE', *, *, #231, .T. ) ;
#126 = DIRECTION ( 'NONE',  ( 0.000000000000000000, 0.000000000000000000, 1.000000000000000000 ) ) ;
#127 = FACE_OUTER_BOUND ( 'NONE', #119, .T. ) ;
#128 = PLANE ( 'NONE',  #47 ) ;
#129 = AXIS2_PLACEMENT_3D ( 'NONE', #130, #253, #104 ) ;
#130 = CARTESIAN_POINT ( 'NONE',  ( 0.000000000000000000, 0.000000000000000000, 0.000000000000000000 ) ) ;
#131 = EDGE_CURVE ( 'NONE', #201, #21, #276, .T. ) ;
#132 = DIRECTION ( 'NONE',  ( -1.000000000000000000, 1.224646799147353207E-16, 0.000000000000000000 ) ) ;
#133 = FACE_BOUND ( 'NONE', #51, .T. ) ;
#134 = APPLICATION_CONTEXT ( 'configuration controlled 3d designs of mechanical parts and assemblies' ) ;
#135 = APPROVAL_ROLE ( '' ) ;
#136 = PRODUCT_DEFINITION_FORMATION_WITH_SPECIFIED_SOURCE ( 'LIBOVOLNÝ', '', #195, .NOT_KNOWN. ) ;
#137 = CC_DESIGN_PERSON_AND_ORGANIZATION_ASSIGNMENT ( #283, #14, ( #195 ) ) ;
#138 = LOCAL_TIME ( 14, 41, 46.00000000000000000, #255 ) ;
#139 = PERSON_AND_ORGANIZATION ( #305, #238 ) ;
#140 = APPROVAL ( #282, 'NEURÈENÝ' ) ;
#141 = AXIS2_PLACEMENT_3D ( 'NONE', #124, #28, #229 ) ;
#142 = APPLICATION_PROTOCOL_DEFINITION ( 'international standard', 'config_control_design', 1994, #245 ) ;
#143 = APPROVAL_PERSON_ORGANIZATION ( #233, #140, #66 ) ;
#144 = ORIENTED_EDGE ( 'NONE', *, *, #131, .F. ) ;
#145 = CIRCLE ( 'NONE', #278, 6.000000000000000888 ) ;
#146 = ORIENTED_EDGE ( 'NONE', *, *, #109, .T. ) ;
#147 = ORIENTED_EDGE ( 'NONE', *, *, #173, .F. ) ;
#148 = EDGE_CURVE ( 'NONE', #199, #45, #63, .T. ) ;
#149 = CARTESIAN_POINT ( 'NONE',  ( 0.000000000000000000, 0.000000000000000000, 5.000000000000000000 ) ) ;
#150 = ORIENTED_EDGE ( 'NONE', *, *, #247, .T. ) ;
#151 = LOCAL_TIME ( 14, 41, 46.00000000000000000, #89 ) ;
#152 = FACE_OUTER_BOUND ( 'NONE', #258, .T. ) ;
#153 = VERTEX_POINT ( 'NONE', #183 ) ;
#154 = CARTESIAN_POINT ( 'NONE',  ( 0.000000000000000000, 0.000000000000000000, 5.000000000000000000 ) ) ;
#155 = CYLINDRICAL_SURFACE ( 'NONE', #106, 3.000000000000000444 ) ;
#156 = DATE_AND_TIME ( #163, #288 ) ;
#157 = CARTESIAN_POINT ( 'NONE',  ( 6.000000000000000888, 7.347880794884120722E-16, 0.000000000000000000 ) ) ;
#158 = DIRECTION ( 'NONE',  ( 0.000000000000000000, 0.000000000000000000, 1.000000000000000000 ) ) ;
#159 = AXIS2_PLACEMENT_3D ( 'NONE', #149, #76, #181 ) ;
#160 = CC_DESIGN_DATE_AND_TIME_ASSIGNMENT ( #36, #18, ( #219 ) ) ;
#161 = CARTESIAN_POINT ( 'NONE',  ( 0.000000000000000000, 0.000000000000000000, 405.0000000000000000 ) ) ;
#162 = CARTESIAN_POINT ( 'NONE',  ( 0.000000000000000000, 0.000000000000000000, 5.000000000000000000 ) ) ;
#163 = CALENDAR_DATE ( 2022, 7, 7 ) ;
#164 = CARTESIAN_POINT ( 'NONE',  ( -6.000000000000000888, 0.000000000000000000, 5.000000000000000000 ) ) ;
#165 = CARTESIAN_POINT ( 'NONE',  ( 0.000000000000000000, 0.000000000000000000, 5.199999999999982414 ) ) ;
#166 = ADVANCED_FACE ( 'NONE', ( #186 ), #270, .T. ) ;
#167 = CALENDAR_DATE ( 2022, 7, 7 ) ;
#168 = PERSON_AND_ORGANIZATION_ROLE ( 'design_supplier' ) ;
#169 = CIRCLE ( 'NONE', #193, 3.000000000000000444 ) ;
#170 = APPROVAL_ROLE ( '' ) ;
#171 = DATE_AND_TIME ( #192, #151 ) ;
#172 = CIRCLE ( 'NONE', #236, 6.000000000000000888 ) ;
#173 = EDGE_CURVE ( 'NONE', #239, #153, #172, .T. ) ;
#174 = ORIENTED_EDGE ( 'NONE', *, *, #148, .F. ) ;
#175 = AXIS2_PLACEMENT_3D ( 'NONE', #154, #27, #86 ) ;
#176 = ADVANCED_FACE ( 'NONE', ( #152 ), #155, .T. ) ;
#177 = ORIENTED_EDGE ( 'NONE', *, *, #148, .T. ) ;
#178 = CARTESIAN_POINT ( 'NONE',  ( -3.000000000000000444, 0.000000000000000000, 405.0000000000000000 ) ) ;
#179 = DIRECTION ( 'NONE',  ( 0.000000000000000000, 0.000000000000000000, 1.000000000000000000 ) ) ;
#180 = ORIENTED_EDGE ( 'NONE', *, *, #69, .T. ) ;
#181 = DIRECTION ( 'NONE',  ( 1.000000000000000000, 0.000000000000000000, 0.000000000000000000 ) ) ;
#182 = LINE ( 'NONE', #294, #96 ) ;
#183 = CARTESIAN_POINT ( 'NONE',  ( 6.000000000000000888, 7.347880794884120722E-16, 5.000000000000000000 ) ) ;
#184 = CC_DESIGN_DATE_AND_TIME_ASSIGNMENT ( #15, #111, ( #116 ) ) ;
#185 = DIRECTION ( 'NONE',  ( 1.000000000000000000, 0.000000000000000000, 0.000000000000000000 ) ) ;
#186 = FACE_OUTER_BOUND ( 'NONE', #248, .T. ) ;
#187 = AXIS2_PLACEMENT_3D ( 'NONE', #32, #6, #204 ) ;
#188 = CC_DESIGN_PERSON_AND_ORGANIZATION_ASSIGNMENT ( #114, #90, ( #136 ) ) ;
#189 = DIRECTION ( 'NONE',  ( 0.000000000000000000, 0.000000000000000000, 1.000000000000000000 ) ) ;
#190 = COORDINATED_UNIVERSAL_TIME_OFFSET ( 1, 0, .AHEAD. ) ;
#191 = VECTOR ( 'NONE', #73, 1000.000000000000000 ) ;
#192 = CALENDAR_DATE ( 2022, 7, 7 ) ;
#193 = AXIS2_PLACEMENT_3D ( 'NONE', #274, #300, #228 ) ;
#194 = SECURITY_CLASSIFICATION_LEVEL ( 'unclassified' ) ;
#195 = PRODUCT ( '79e6', '79e6', '', ( #88 ) ) ;
#196 = ADVANCED_FACE ( 'NONE', ( #127 ), #107, .F. ) ;
#197 = ADVANCED_BREP_SHAPE_REPRESENTATION ( '79e6', ( #4, #41 ), #110 ) ;
#198 = EDGE_LOOP ( 'NONE', ( #223, #147, #117, #285 ) ) ;
#199 = VERTEX_POINT ( 'NONE', #78 ) ;
#200 = AXIS2_PLACEMENT_3D ( 'NONE', #211, #208, #205 ) ;
#201 = VERTEX_POINT ( 'NONE', #59 ) ;
#202 = DIRECTION ( 'NONE',  ( 1.224646799147353207E-16, 1.000000000000000000, -0.000000000000000000 ) ) ;
#203 = EDGE_LOOP ( 'NONE', ( #24, #177, #95, #144 ) ) ;
#204 = DIRECTION ( 'NONE',  ( -1.000000000000000000, 0.000000000000000000, 0.000000000000000000 ) ) ;
#205 = DIRECTION ( 'NONE',  ( 1.000000000000000000, 0.000000000000000000, -0.000000000000000000 ) ) ;
#206 = APPROVAL_PERSON_ORGANIZATION ( #139, #94, #135 ) ;
#207 = CARTESIAN_POINT ( 'NONE',  ( 0.000000000000000000, 0.000000000000000000, 5.199999999999982414 ) ) ;
#208 = DIRECTION ( 'NONE',  ( 0.000000000000000000, 0.000000000000000000, 1.000000000000000000 ) ) ;
#209 = CARTESIAN_POINT ( 'NONE',  ( 3.000000000000000444, 3.673940397442060361E-16, 405.0000000000000000 ) ) ;
#210 = CIRCLE ( 'NONE', #286, 3.200000000000000622 ) ;
#211 = CARTESIAN_POINT ( 'NONE',  ( 0.000000000000000000, 0.000000000000000000, 0.000000000000000000 ) ) ;
#212 = CIRCLE ( 'NONE', #129, 6.000000000000000888 ) ;
#213 = PERSON_AND_ORGANIZATION ( #305, #238 ) ;
#214 = PERSON_AND_ORGANIZATION ( #305, #238 ) ;
#215 = EDGE_CURVE ( 'NONE', #19, #267, #58, .T. ) ;
#216 = APPROVAL_STATUS ( 'not_yet_approved' ) ;
#217 = EDGE_CURVE ( 'NONE', #153, #240, #182, .T. ) ;
#218 = ORIENTED_EDGE ( 'NONE', *, *, #109, .F. ) ;
#219 = PRODUCT_DEFINITION ( 'NEZNÁMÝ', '', #136, #49 ) ;
#220 = EDGE_LOOP ( 'NONE', ( #3, #150 ) ) ;
#221 = ORIENTED_EDGE ( 'NONE', *, *, #215, .F. ) ;
#222 = CARTESIAN_POINT ( 'NONE',  ( -3.200000000000000622, 3.918869757271530953E-16, 5.199999999999982414 ) ) ;
#223 = ORIENTED_EDGE ( 'NONE', *, *, #217, .F. ) ;
#224 = CARTESIAN_POINT ( 'NONE',  ( 0.000000000000000000, 0.000000000000000000, 405.0000000000000000 ) ) ;
#225 = EDGE_CURVE ( 'NONE', #72, #240, #145, .T. ) ;
#226 = DIRECTION ( 'NONE',  ( 0.000000000000000000, 0.000000000000000000, 1.000000000000000000 ) ) ;
#227 = DIRECTION ( 'NONE',  ( -0.000000000000000000, -0.000000000000000000, -1.000000000000000000 ) ) ;
#228 = DIRECTION ( 'NONE',  ( 1.000000000000000000, 0.000000000000000000, 0.000000000000000000 ) ) ;
#229 = DIRECTION ( 'NONE',  ( 0.000000000000000000, 0.000000000000000000, -1.000000000000000000 ) ) ;
#230 = FACE_OUTER_BOUND ( 'NONE', #75, .T. ) ;
#231 = EDGE_CURVE ( 'NONE', #19, #199, #254, .T. ) ;
#232 =( NAMED_UNIT ( * ) PLANE_ANGLE_UNIT ( ) SI_UNIT ( $, .RADIAN. ) );
#233 = PERSON_AND_ORGANIZATION ( #305, #238 ) ;
#234 = CARTESIAN_POINT ( 'NONE',  ( 0.000000000000000000, 0.000000000000000000, 0.000000000000000000 ) ) ;
#235 = PERSON_AND_ORGANIZATION_ROLE ( 'creator' ) ;
#236 = AXIS2_PLACEMENT_3D ( 'NONE', #57, #158, #48 ) ;
#237 = CIRCLE ( 'NONE', #287, 3.000000000000000444 ) ;
#238 = ORGANIZATION ( 'NEURÈENÝ', 'NEURÈENÝ', '' ) ;
#239 = VERTEX_POINT ( 'NONE', #164 ) ;
#240 = VERTEX_POINT ( 'NONE', #157 ) ;
#241 = ORIENTED_EDGE ( 'NONE', *, *, #173, .T. ) ;
#242 = CARTESIAN_POINT ( 'NONE',  ( 0.000000000000000000, 0.000000000000000000, 5.000000000000000000 ) ) ;
#243 = AXIS2_PLACEMENT_3D ( 'NONE', #165, #226, #296 ) ;
#244 = ORIENTED_EDGE ( 'NONE', *, *, #118, .T. ) ;
#245 = APPLICATION_CONTEXT ( 'configuration controlled 3d designs of mechanical parts and assemblies' ) ;
#246 = DIRECTION ( 'NONE',  ( -0.000000000000000000, -0.000000000000000000, -1.000000000000000000 ) ) ;
#247 = EDGE_CURVE ( 'NONE', #267, #19, #169, .T. ) ;
#248 = EDGE_LOOP ( 'NONE', ( #93, #260, #20, #100 ) ) ;
#249 = CARTESIAN_POINT ( 'NONE',  ( -3.000000000000000444, 0.000000000000000000, 405.0000000000000000 ) ) ;
#250 = DIRECTION ( 'NONE',  ( 1.000000000000000000, 0.000000000000000000, -0.000000000000000000 ) ) ;
#251 = DIRECTION ( 'NONE',  ( 0.000000000000000000, 0.000000000000000000, 1.000000000000000000 ) ) ;
#252 = FACE_OUTER_BOUND ( 'NONE', #44, .T. ) ;
#253 = DIRECTION ( 'NONE',  ( 0.000000000000000000, 0.000000000000000000, 1.000000000000000000 ) ) ;
#254 = LINE ( 'NONE', #249, #35 ) ;
#255 = COORDINATED_UNIVERSAL_TIME_OFFSET ( 1, 0, .AHEAD. ) ;
#256 = APPROVAL_STATUS ( 'not_yet_approved' ) ;
#257 = CALENDAR_DATE ( 2022, 7, 7 ) ;
#258 = EDGE_LOOP ( 'NONE', ( #2, #180, #71, #289 ) ) ;
#259 = EDGE_CURVE ( 'NONE', #240, #72, #212, .T. ) ;
#260 = ORIENTED_EDGE ( 'NONE', *, *, #217, .T. ) ;
#261 = ORIENTED_EDGE ( 'NONE', *, *, #131, .T. ) ;
#262 = CARTESIAN_POINT ( 'NONE',  ( 3.200000000000000622, 0.000000000000000000, 4.999999999999991118 ) ) ;
#263 = EDGE_CURVE ( 'NONE', #199, #201, #68, .T. ) ;
#264 = DIRECTION ( 'NONE',  ( -1.000000000000000000, 0.000000000000000000, 0.000000000000000000 ) ) ;
#265 = COORDINATED_UNIVERSAL_TIME_OFFSET ( 1, 0, .AHEAD. ) ;
#266 = LOCAL_TIME ( 14, 41, 46.00000000000000000, #304 ) ;
#267 = VERTEX_POINT ( 'NONE', #54 ) ;
#268 = CC_DESIGN_APPROVAL ( #94, ( #136 ) ) ;
#269 = DIRECTION ( 'NONE',  ( 1.000000000000000000, 0.000000000000000000, 0.000000000000000000 ) ) ;
#270 = CYLINDRICAL_SURFACE ( 'NONE', #17, 6.000000000000000888 ) ;
#271 = DIRECTION ( 'NONE',  ( -0.000000000000000000, -0.000000000000000000, -1.000000000000000000 ) ) ;
#272 = CARTESIAN_POINT ( 'NONE',  ( -3.200000000000000622, 3.918869757271530953E-16, 4.999999999999991118 ) ) ;
#273 = APPROVAL_DATE_TIME ( #156, #91 ) ;
#274 = CARTESIAN_POINT ( 'NONE',  ( 0.000000000000000000, 0.000000000000000000, 405.0000000000000000 ) ) ;
#275 = FACE_OUTER_BOUND ( 'NONE', #292, .T. ) ;
#276 = CIRCLE ( 'NONE', #141, 0.1999999999999996503 ) ;
#277 = CARTESIAN_POINT ( 'NONE',  ( 0.000000000000000000, 0.000000000000000000, 0.000000000000000000 ) ) ;
#278 = AXIS2_PLACEMENT_3D ( 'NONE', #277, #189, #269 ) ;
#279 = PERSON_AND_ORGANIZATION ( #305, #238 ) ;
#280 = ADVANCED_FACE ( 'NONE', ( #56 ), #77, .F. ) ;
#281 = APPROVAL_PERSON_ORGANIZATION ( #213, #91, #170 ) ;
#282 = APPROVAL_STATUS ( 'not_yet_approved' ) ;
#283 = PERSON_AND_ORGANIZATION ( #305, #238 ) ;
#284 = AXIS2_PLACEMENT_3D ( 'NONE', #297, #126, #105 ) ;
#285 = ORIENTED_EDGE ( 'NONE', *, *, #225, .T. ) ;
#286 = AXIS2_PLACEMENT_3D ( 'NONE', #291, #246, #101 ) ;
#287 = AXIS2_PLACEMENT_3D ( 'NONE', #30, #11, #25 ) ;
#288 = LOCAL_TIME ( 14, 41, 46.00000000000000000, #265 ) ;
#289 = ORIENTED_EDGE ( 'NONE', *, *, #231, .F. ) ;
#290 = CARTESIAN_POINT ( 'NONE',  ( -6.000000000000000888, 0.000000000000000000, 5.000000000000000000 ) ) ;
#291 = CARTESIAN_POINT ( 'NONE',  ( 0.000000000000000000, 0.000000000000000000, 5.000000000000000000 ) ) ;
#292 = EDGE_LOOP ( 'NONE', ( #174, #123, #261, #218 ) ) ;
#293 = DIRECTION ( 'NONE',  ( -0.000000000000000000, -0.000000000000000000, -1.000000000000000000 ) ) ;
#294 = CARTESIAN_POINT ( 'NONE',  ( 6.000000000000000888, 7.347880794884120722E-16, 5.000000000000000000 ) ) ;
#295 = DIRECTION ( 'NONE',  ( -0.000000000000000000, -0.000000000000000000, -1.000000000000000000 ) ) ;
#296 = DIRECTION ( 'NONE',  ( 1.000000000000000000, 0.000000000000000000, 0.000000000000000000 ) ) ;
#297 = CARTESIAN_POINT ( 'NONE',  ( 0.000000000000000000, 0.000000000000000000, 5.000000000000000000 ) ) ;
#298 = CC_DESIGN_PERSON_AND_ORGANIZATION_ASSIGNMENT ( #34, #61, ( #116 ) ) ;
#299 = AXIS2_PLACEMENT_3D ( 'NONE', #222, #202, #132 ) ;
#300 = DIRECTION ( 'NONE',  ( 0.000000000000000000, 0.000000000000000000, 1.000000000000000000 ) ) ;
#301 = CC_DESIGN_SECURITY_CLASSIFICATION ( #116, ( #136 ) ) ;
#302 = ADVANCED_FACE ( 'NONE', ( #133, #230 ), #84, .T. ) ;
#303 = CALENDAR_DATE ( 2022, 7, 7 ) ;
#304 = COORDINATED_UNIVERSAL_TIME_OFFSET ( 1, 0, .AHEAD. ) ;
#305 = PERSON ( 'NEURÈENÝ', 'NEURÈENÝ', 'NEURÈENÝ', ('NEURÈENÝ'), ('NEURÈENÝ'), ('NEURÈENÝ') ) ;
#306 = AXIS2_PLACEMENT_3D ( 'NONE', #60, #52, #33 ) ;
#307 = PRODUCT_DEFINITION_SHAPE ( 'NONE', 'NONE',  #219 ) ;
ENDSEC;
END-ISO-10303-21;
