ISO-10303-21;
HEADER;
FILE_DESCRIPTION (( 'STEP AP203' ),
    '1' );
FILE_NAME ('364a.STEP',
    '2022-07-07T12:40:04',
    ( '' ),
    ( '' ),
    'SwSTEP 2.0',
    'SolidWorks 2019',
    '' );
FILE_SCHEMA (( 'CONFIG_CONTROL_DESIGN' ));
ENDSEC;

DATA;
#1 = EDGE_CURVE ( 'NONE', #291, #190, #259, .T. ) ;
#2 = ORIENTED_EDGE ( 'NONE', *, *, #42, .T. ) ;
#3 = PERSON_AND_ORGANIZATION ( #87, #43 ) ;
#4 = ORIENTED_EDGE ( 'NONE', *, *, #50, .T. ) ;
#5 = CC_DESIGN_APPROVAL ( #208, ( #307 ) ) ;
#6 = ORIENTED_EDGE ( 'NONE', *, *, #254, .F. ) ;
#7 = CC_DESIGN_DATE_AND_TIME_ASSIGNMENT ( #96, #166, ( #72 ) ) ;
#8 = ORIENTED_EDGE ( 'NONE', *, *, #276, .F. ) ;
#9 = DIRECTION ( 'NONE',  ( 0.000000000000000000, 0.000000000000000000, 1.000000000000000000 ) ) ;
#10 = CARTESIAN_POINT ( 'NONE',  ( 3.100000000000000089, 3.796405077356794918E-16, 320.0000000000000000 ) ) ;
#11 = DIRECTION ( 'NONE',  ( -1.000000000000000000, 1.224646799147353207E-16, 0.000000000000000000 ) ) ;
#12 = AXIS2_PLACEMENT_3D ( 'NONE', #157, #273, #177 ) ;
#13 = LINE ( 'NONE', #296, #178 ) ;
#14 = LINE ( 'NONE', #223, #304 ) ;
#15 = CARTESIAN_POINT ( 'NONE',  ( 0.000000000000000000, 0.000000000000000000, 5.000000000000000000 ) ) ;
#16 = CARTESIAN_POINT ( 'NONE',  ( 0.000000000000000000, 0.000000000000000000, 5.000000000000000000 ) ) ;
#17 = DIRECTION ( 'NONE',  ( 0.000000000000000000, 0.000000000000000000, 1.000000000000000000 ) ) ;
#18 = LOCAL_TIME ( 14, 40, 4.000000000000000000, #262 ) ;
#19 = LINE ( 'NONE', #83, #284 ) ;
#20 = APPROVAL_PERSON_ORGANIZATION ( #71, #208, #76 ) ;
#21 = EDGE_CURVE ( 'NONE', #29, #26, #121, .T. ) ;
#22 = SHAPE_DEFINITION_REPRESENTATION ( #261, #158 ) ;
#23 = AXIS2_PLACEMENT_3D ( 'NONE', #102, #270, #34 ) ;
#24 = ORIENTED_EDGE ( 'NONE', *, *, #42, .F. ) ;
#25 = PERSON_AND_ORGANIZATION ( #87, #43 ) ;
#26 = VERTEX_POINT ( 'NONE', #152 ) ;
#27 = APPROVAL_STATUS ( 'not_yet_approved' ) ;
#28 = CIRCLE ( 'NONE', #65, 0.2000000000000000944 ) ;
#29 = VERTEX_POINT ( 'NONE', #248 ) ;
#30 = PERSON_AND_ORGANIZATION ( #87, #43 ) ;
#31 = ORIENTED_EDGE ( 'NONE', *, *, #276, .T. ) ;
#32 = CALENDAR_DATE ( 2022, 7, 7 ) ;
#33 = DIRECTION ( 'NONE',  ( 1.000000000000000000, 0.000000000000000000, -0.000000000000000000 ) ) ;
#34 = DIRECTION ( 'NONE',  ( 1.000000000000000000, 0.000000000000000000, 0.000000000000000000 ) ) ;
#35 = ADVANCED_FACE ( 'NONE', ( #85 ), #104, .T. ) ;
#36 = CIRCLE ( 'NONE', #54, 3.100000000000000089 ) ;
#37 = CARTESIAN_POINT ( 'NONE',  ( 0.000000000000000000, 0.000000000000000000, 5.199999999999982414 ) ) ;
#38 = CARTESIAN_POINT ( 'NONE',  ( 0.000000000000000000, 0.000000000000000000, 5.000000000000000000 ) ) ;
#39 = DIRECTION ( 'NONE',  ( 0.000000000000000000, 0.000000000000000000, 1.000000000000000000 ) ) ;
#40 = DIRECTION ( 'NONE',  ( 0.000000000000000000, 0.000000000000000000, 1.000000000000000000 ) ) ;
#41 = CARTESIAN_POINT ( 'NONE',  ( -3.299999999999999822, 4.041334437186265510E-16, 4.999999999999991118 ) ) ;
#42 = EDGE_CURVE ( 'NONE', #29, #263, #28, .T. ) ;
#43 = ORGANIZATION ( 'NEURÈENÝ', 'NEURÈENÝ', '' ) ;
#44 = APPLICATION_CONTEXT ( 'configuration controlled 3d designs of mechanical parts and assemblies' ) ;
#45 = ADVANCED_FACE ( 'NONE', ( #79 ), #228, .F. ) ;
#46 = AXIS2_PLACEMENT_3D ( 'NONE', #89, #250, #301 ) ;
#47 = VERTEX_POINT ( 'NONE', #247 ) ;
#48 = ORIENTED_EDGE ( 'NONE', *, *, #175, .F. ) ;
#49 = MECHANICAL_CONTEXT ( 'NONE', #44, 'mechanical' ) ;
#50 = EDGE_CURVE ( 'NONE', #263, #119, #231, .T. ) ;
#51 = ORIENTED_EDGE ( 'NONE', *, *, #175, .T. ) ;
#52 = PERSON_AND_ORGANIZATION_ROLE ( 'creator' ) ;
#53 = ORIENTED_EDGE ( 'NONE', *, *, #258, .F. ) ;
#54 = AXIS2_PLACEMENT_3D ( 'NONE', #180, #40, #274 ) ;
#55 = APPLICATION_PROTOCOL_DEFINITION ( 'international standard', 'config_control_design', 1994, #260 ) ;
#56 = CYLINDRICAL_SURFACE ( 'NONE', #135, 6.000000000000000888 ) ;
#57 = DIRECTION ( 'NONE',  ( -0.000000000000000000, -0.000000000000000000, -1.000000000000000000 ) ) ;
#58 = CC_DESIGN_PERSON_AND_ORGANIZATION_ASSIGNMENT ( #188, #186, ( #307 ) ) ;
#59 = DIRECTION ( 'NONE',  ( -0.000000000000000000, -0.000000000000000000, -1.000000000000000000 ) ) ;
#60 = CARTESIAN_POINT ( 'NONE',  ( 0.000000000000000000, 0.000000000000000000, 0.000000000000000000 ) ) ;
#61 = DIRECTION ( 'NONE',  ( 1.224646799147353207E-16, 1.000000000000000000, -0.000000000000000000 ) ) ;
#62 = DIRECTION ( 'NONE',  ( -0.000000000000000000, -0.000000000000000000, -1.000000000000000000 ) ) ;
#63 = CIRCLE ( 'NONE', #275, 3.100000000000000089 ) ;
#64 = EDGE_CURVE ( 'NONE', #119, #263, #268, .T. ) ;
#65 = AXIS2_PLACEMENT_3D ( 'NONE', #170, #61, #11 ) ;
#66 = CIRCLE ( 'NONE', #225, 6.000000000000000888 ) ;
#67 = CALENDAR_DATE ( 2022, 7, 7 ) ;
#68 = ORIENTED_EDGE ( 'NONE', *, *, #139, .T. ) ;
#69 = CIRCLE ( 'NONE', #111, 6.000000000000000888 ) ;
#70 = ORIENTED_EDGE ( 'NONE', *, *, #50, .F. ) ;
#71 = PERSON_AND_ORGANIZATION ( #87, #43 ) ;
#72 = PRODUCT_DEFINITION ( 'NEZNÁMÝ', '', #307, #140 ) ;
#73 = DIRECTION ( 'NONE',  ( 0.000000000000000000, 0.000000000000000000, 1.000000000000000000 ) ) ;
#74 = APPROVAL_ROLE ( '' ) ;
#75 = ORIENTED_EDGE ( 'NONE', *, *, #215, .F. ) ;
#76 = APPROVAL_ROLE ( '' ) ;
#77 = DIRECTION ( 'NONE',  ( 1.000000000000000000, 0.000000000000000000, 0.000000000000000000 ) ) ;
#78 = ORIENTED_EDGE ( 'NONE', *, *, #210, .F. ) ;
#79 = FACE_OUTER_BOUND ( 'NONE', #95, .T. ) ;
#80 = CYLINDRICAL_SURFACE ( 'NONE', #141, 6.000000000000000888 ) ;
#81 = ORIENTED_EDGE ( 'NONE', *, *, #258, .T. ) ;
#82 = DIRECTION ( 'NONE',  ( -1.000000000000000000, 0.000000000000000000, 0.000000000000000000 ) ) ;
#83 = CARTESIAN_POINT ( 'NONE',  ( -6.000000000000000888, 0.000000000000000000, 5.000000000000000000 ) ) ;
#84 = CLOSED_SHELL ( 'NONE', ( #162, #35, #109, #239, #93, #45, #189, #90, #88 ) ) ;
#85 = FACE_OUTER_BOUND ( 'NONE', #288, .T. ) ;
#86 = DIRECTION ( 'NONE',  ( 0.000000000000000000, 0.000000000000000000, 1.000000000000000000 ) ) ;
#87 = PERSON ( 'NEURÈENÝ', 'NEURÈENÝ', 'NEURÈENÝ', ('NEURÈENÝ'), ('NEURÈENÝ'), ('NEURÈENÝ') ) ;
#88 = ADVANCED_FACE ( 'NONE', ( #293 ), #161, .F. ) ;
#89 = CARTESIAN_POINT ( 'NONE',  ( 0.000000000000000000, 0.000000000000000000, 320.0000000000000000 ) ) ;
#90 = ADVANCED_FACE ( 'NONE', ( #295 ), #128, .T. ) ;
#91 =( GEOMETRIC_REPRESENTATION_CONTEXT ( 3 ) GLOBAL_UNCERTAINTY_ASSIGNED_CONTEXT ( ( #114 ) ) GLOBAL_UNIT_ASSIGNED_CONTEXT ( ( #229, #112, #253 ) ) REPRESENTATION_CONTEXT ( 'NONE', 'WORKASPACE' ) );
#92 = ORIENTED_EDGE ( 'NONE', *, *, #282, .F. ) ;
#93 = ADVANCED_FACE ( 'NONE', ( #106, #297 ), #226, .T. ) ;
#94 = PERSON_AND_ORGANIZATION ( #87, #43 ) ;
#95 = EDGE_LOOP ( 'NONE', ( #53, #78 ) ) ;
#96 = DATE_AND_TIME ( #149, #264 ) ;
#97 = ORIENTED_EDGE ( 'NONE', *, *, #1, .F. ) ;
#98 = DATE_AND_TIME ( #246, #257 ) ;
#99 = DIRECTION ( 'NONE',  ( 1.000000000000000000, 0.000000000000000000, 0.000000000000000000 ) ) ;
#100 = ORIENTED_EDGE ( 'NONE', *, *, #21, .F. ) ;
#101 = APPROVAL_STATUS ( 'not_yet_approved' ) ;
#102 = CARTESIAN_POINT ( 'NONE',  ( 0.000000000000000000, 0.000000000000000000, 5.199999999999982414 ) ) ;
#103 = CC_DESIGN_SECURITY_CLASSIFICATION ( #209, ( #307 ) ) ;
#104 = CYLINDRICAL_SURFACE ( 'NONE', #206, 3.100000000000000089 ) ;
#105 = CARTESIAN_POINT ( 'NONE',  ( -6.000000000000000888, 0.000000000000000000, 5.000000000000000000 ) ) ;
#106 = FACE_BOUND ( 'NONE', #241, .T. ) ;
#107 = CARTESIAN_POINT ( 'NONE',  ( -3.100000000000000089, 0.000000000000000000, 320.0000000000000000 ) ) ;
#108 = CARTESIAN_POINT ( 'NONE',  ( 0.000000000000000000, 0.000000000000000000, 320.0000000000000000 ) ) ;
#109 = ADVANCED_FACE ( 'NONE', ( #202 ), #56, .T. ) ;
#110 = CYLINDRICAL_SURFACE ( 'NONE', #46, 3.100000000000000089 ) ;
#111 = AXIS2_PLACEMENT_3D ( 'NONE', #15, #277, #205 ) ;
#112 =( NAMED_UNIT ( * ) PLANE_ANGLE_UNIT ( ) SI_UNIT ( $, .RADIAN. ) );
#113 = CC_DESIGN_PERSON_AND_ORGANIZATION_ASSIGNMENT ( #94, #52, ( #72 ) ) ;
#114 = UNCERTAINTY_MEASURE_WITH_UNIT (LENGTH_MEASURE( 1.000000000000000082E-05 ), #229, 'distance_accuracy_value', 'NONE');
#115 = MANIFOLD_SOLID_BREP ( 'Zaoblit1', #84 ) ;
#116 = ORIENTED_EDGE ( 'NONE', *, *, #210, .T. ) ;
#117 = PRODUCT_RELATED_PRODUCT_CATEGORY ( 'detail', '', ( #306 ) ) ;
#118 = APPROVAL_ROLE ( '' ) ;
#119 = VERTEX_POINT ( 'NONE', #222 ) ;
#120 = APPROVAL_DATE_TIME ( #98, #230 ) ;
#121 = CIRCLE ( 'NONE', #302, 3.100000000000000089 ) ;
#122 = LOCAL_TIME ( 14, 40, 4.000000000000000000, #168 ) ;
#123 = VERTEX_POINT ( 'NONE', #10 ) ;
#124 = PERSON_AND_ORGANIZATION_ROLE ( 'creator' ) ;
#125 = ORIENTED_EDGE ( 'NONE', *, *, #64, .F. ) ;
#126 = DATE_AND_TIME ( #32, #122 ) ;
#127 = CARTESIAN_POINT ( 'NONE',  ( 0.000000000000000000, 0.000000000000000000, 5.000000000000000000 ) ) ;
#128 = PLANE ( 'NONE',  #196 ) ;
#129 = DIRECTION ( 'NONE',  ( 1.000000000000000000, 0.000000000000000000, 0.000000000000000000 ) ) ;
#130 = CIRCLE ( 'NONE', #164, 6.000000000000000888 ) ;
#131 = DIRECTION ( 'NONE',  ( -0.000000000000000000, -0.000000000000000000, -1.000000000000000000 ) ) ;
#132 = LINE ( 'NONE', #107, #183 ) ;
#133 = DIRECTION ( 'NONE',  ( 0.000000000000000000, 0.000000000000000000, 1.000000000000000000 ) ) ;
#134 = DIRECTION ( 'NONE',  ( 0.000000000000000000, -1.000000000000000000, 0.000000000000000000 ) ) ;
#135 = AXIS2_PLACEMENT_3D ( 'NONE', #204, #252, #150 ) ;
#136 = DIRECTION ( 'NONE',  ( -0.000000000000000000, -0.000000000000000000, -1.000000000000000000 ) ) ;
#137 = CC_DESIGN_PERSON_AND_ORGANIZATION_ASSIGNMENT ( #25, #145, ( #306 ) ) ;
#138 = CC_DESIGN_APPROVAL ( #199, ( #209 ) ) ;
#139 = EDGE_CURVE ( 'NONE', #291, #47, #14, .T. ) ;
#140 = DESIGN_CONTEXT ( 'detailed design', #260, 'design' ) ;
#141 = AXIS2_PLACEMENT_3D ( 'NONE', #38, #62, #159 ) ;
#142 = ORIENTED_EDGE ( 'NONE', *, *, #305, .T. ) ;
#143 = APPROVAL_STATUS ( 'not_yet_approved' ) ;
#144 = ORIENTED_EDGE ( 'NONE', *, *, #198, .F. ) ;
#145 = PERSON_AND_ORGANIZATION_ROLE ( 'design_owner' ) ;
#146 = CARTESIAN_POINT ( 'NONE',  ( 0.000000000000000000, 0.000000000000000000, 5.199999999999982414 ) ) ;
#147 = COORDINATED_UNIVERSAL_TIME_OFFSET ( 1, 0, .AHEAD. ) ;
#148 = ORIENTED_EDGE ( 'NONE', *, *, #198, .T. ) ;
#149 = CALENDAR_DATE ( 2022, 7, 7 ) ;
#150 = DIRECTION ( 'NONE',  ( -1.000000000000000000, 0.000000000000000000, 0.000000000000000000 ) ) ;
#151 = CC_DESIGN_DATE_AND_TIME_ASSIGNMENT ( #191, #292, ( #209 ) ) ;
#152 = CARTESIAN_POINT ( 'NONE',  ( 3.100000000000000089, 3.796405077356794918E-16, 5.199999999999982414 ) ) ;
#153 = FACE_OUTER_BOUND ( 'NONE', #169, .T. ) ;
#154 = DIRECTION ( 'NONE',  ( 1.000000000000000000, 0.000000000000000000, 0.000000000000000000 ) ) ;
#155 = CC_DESIGN_APPROVAL ( #230, ( #72 ) ) ;
#156 = CC_DESIGN_PERSON_AND_ORGANIZATION_ASSIGNMENT ( #30, #287, ( #209 ) ) ;
#157 = CARTESIAN_POINT ( 'NONE',  ( 0.000000000000000000, 0.000000000000000000, 5.000000000000000000 ) ) ;
#158 = ADVANCED_BREP_SHAPE_REPRESENTATION ( '364a', ( #115, #197 ), #91 ) ;
#159 = DIRECTION ( 'NONE',  ( -1.000000000000000000, 0.000000000000000000, 0.000000000000000000 ) ) ;
#160 = FACE_OUTER_BOUND ( 'NONE', #193, .T. ) ;
#161 = TOROIDAL_SURFACE ( 'NONE', #23, 3.299999999999999822, 0.2000000000000000111 ) ;
#162 = ADVANCED_FACE ( 'NONE', ( #153 ), #181, .F. ) ;
#163 = ORIENTED_EDGE ( 'NONE', *, *, #64, .T. ) ;
#164 = AXIS2_PLACEMENT_3D ( 'NONE', #256, #176, #255 ) ;
#165 = EDGE_LOOP ( 'NONE', ( #97, #68, #116, #92 ) ) ;
#166 = DATE_TIME_ROLE ( 'creation_date' ) ;
#167 = DIRECTION ( 'NONE',  ( 1.000000000000000000, 0.000000000000000000, 0.000000000000000000 ) ) ;
#168 = COORDINATED_UNIVERSAL_TIME_OFFSET ( 1, 0, .AHEAD. ) ;
#169 = EDGE_LOOP ( 'NONE', ( #100, #2, #125, #144 ) ) ;
#170 = CARTESIAN_POINT ( 'NONE',  ( -3.299999999999999822, 4.041334437186265510E-16, 5.199999999999982414 ) ) ;
#171 = AXIS2_PLACEMENT_3D ( 'NONE', #127, #173, #77 ) ;
#172 = ORIENTED_EDGE ( 'NONE', *, *, #215, .T. ) ;
#173 = DIRECTION ( 'NONE',  ( -0.000000000000000000, -0.000000000000000000, -1.000000000000000000 ) ) ;
#174 = DIRECTION ( 'NONE',  ( 0.000000000000000000, 0.000000000000000000, 1.000000000000000000 ) ) ;
#175 = EDGE_CURVE ( 'NONE', #26, #29, #234, .T. ) ;
#176 = DIRECTION ( 'NONE',  ( 0.000000000000000000, 0.000000000000000000, 1.000000000000000000 ) ) ;
#177 = DIRECTION ( 'NONE',  ( 1.000000000000000000, 0.000000000000000000, -0.000000000000000000 ) ) ;
#178 = VECTOR ( 'NONE', #272, 1000.000000000000000 ) ;
#179 = CARTESIAN_POINT ( 'NONE',  ( 6.000000000000000888, 7.347880794884120722E-16, 5.000000000000000000 ) ) ;
#180 = CARTESIAN_POINT ( 'NONE',  ( 0.000000000000000000, 0.000000000000000000, 320.0000000000000000 ) ) ;
#181 = TOROIDAL_SURFACE ( 'NONE', #211, 3.299999999999999822, 0.2000000000000000111 ) ;
#182 = AXIS2_PLACEMENT_3D ( 'NONE', #16, #57, #192 ) ;
#183 = VECTOR ( 'NONE', #136, 1000.000000000000000 ) ;
#184 = EDGE_LOOP ( 'NONE', ( #185, #142 ) ) ;
#185 = ORIENTED_EDGE ( 'NONE', *, *, #278, .T. ) ;
#186 = PERSON_AND_ORGANIZATION_ROLE ( 'design_supplier' ) ;
#187 = EDGE_LOOP ( 'NONE', ( #172, #265 ) ) ;
#188 = PERSON_AND_ORGANIZATION ( #87, #43 ) ;
#189 = ADVANCED_FACE ( 'NONE', ( #160 ), #110, .T. ) ;
#190 = VERTEX_POINT ( 'NONE', #105 ) ;
#191 = DATE_AND_TIME ( #285, #244 ) ;
#192 = DIRECTION ( 'NONE',  ( 1.000000000000000000, 0.000000000000000000, 0.000000000000000000 ) ) ;
#193 = EDGE_LOOP ( 'NONE', ( #6, #245, #31, #220 ) ) ;
#194 = SECURITY_CLASSIFICATION_LEVEL ( 'unclassified' ) ;
#195 = CARTESIAN_POINT ( 'NONE',  ( 0.000000000000000000, 0.000000000000000000, 0.000000000000000000 ) ) ;
#196 = AXIS2_PLACEMENT_3D ( 'NONE', #108, #174, #33 ) ;
#197 = AXIS2_PLACEMENT_3D ( 'NONE', #213, #9, #216 ) ;
#198 = EDGE_CURVE ( 'NONE', #26, #119, #217, .T. ) ;
#199 = APPROVAL ( #143, 'NEURÈENÝ' ) ;
#200 = CARTESIAN_POINT ( 'NONE',  ( 0.000000000000000000, 0.000000000000000000, 320.0000000000000000 ) ) ;
#201 = DIRECTION ( 'NONE',  ( 1.000000000000000000, 0.000000000000000000, 0.000000000000000000 ) ) ;
#202 = FACE_OUTER_BOUND ( 'NONE', #165, .T. ) ;
#203 = FACE_OUTER_BOUND ( 'NONE', #240, .T. ) ;
#204 = CARTESIAN_POINT ( 'NONE',  ( 0.000000000000000000, 0.000000000000000000, 5.000000000000000000 ) ) ;
#205 = DIRECTION ( 'NONE',  ( 1.000000000000000000, 0.000000000000000000, 0.000000000000000000 ) ) ;
#206 = AXIS2_PLACEMENT_3D ( 'NONE', #200, #59, #82 ) ;
#207 = CARTESIAN_POINT ( 'NONE',  ( -3.100000000000000089, 0.000000000000000000, 320.0000000000000000 ) ) ;
#208 = APPROVAL ( #101, 'NEURÈENÝ' ) ;
#209 = SECURITY_CLASSIFICATION ( '', '', #194 ) ;
#210 = EDGE_CURVE ( 'NONE', #47, #281, #130, .T. ) ;
#211 = AXIS2_PLACEMENT_3D ( 'NONE', #271, #133, #249 ) ;
#212 = VERTEX_POINT ( 'NONE', #207 ) ;
#213 = CARTESIAN_POINT ( 'NONE',  ( 0.000000000000000000, 0.000000000000000000, 0.000000000000000000 ) ) ;
#214 = ORIENTED_EDGE ( 'NONE', *, *, #254, .T. ) ;
#215 = EDGE_CURVE ( 'NONE', #190, #291, #69, .T. ) ;
#216 = DIRECTION ( 'NONE',  ( 1.000000000000000000, 0.000000000000000000, 0.000000000000000000 ) ) ;
#217 = CIRCLE ( 'NONE', #251, 0.1999999999999996503 ) ;
#218 = DIRECTION ( 'NONE',  ( 0.000000000000000000, 0.000000000000000000, 1.000000000000000000 ) ) ;
#219 = COORDINATED_UNIVERSAL_TIME_OFFSET ( 1, 0, .AHEAD. ) ;
#220 = ORIENTED_EDGE ( 'NONE', *, *, #21, .T. ) ;
#221 = PERSON_AND_ORGANIZATION ( #87, #43 ) ;
#222 = CARTESIAN_POINT ( 'NONE',  ( 3.299999999999999822, 0.000000000000000000, 4.999999999999991118 ) ) ;
#223 = CARTESIAN_POINT ( 'NONE',  ( 6.000000000000000888, 7.347880794884120722E-16, 5.000000000000000000 ) ) ;
#224 = DIRECTION ( 'NONE',  ( 0.000000000000000000, 0.000000000000000000, -1.000000000000000000 ) ) ;
#225 = AXIS2_PLACEMENT_3D ( 'NONE', #60, #17, #154 ) ;
#226 = PLANE ( 'NONE',  #12 ) ;
#227 = CARTESIAN_POINT ( 'NONE',  ( 3.299999999999999822, 0.000000000000000000, 5.199999999999982414 ) ) ;
#228 = PLANE ( 'NONE',  #242 ) ;
#229 =( LENGTH_UNIT ( ) NAMED_UNIT ( * ) SI_UNIT ( .MILLI., .METRE. ) );
#230 = APPROVAL ( #27, 'NEURÈENÝ' ) ;
#231 = CIRCLE ( 'NONE', #182, 3.299999999999999822 ) ;
#232 = APPROVAL_PERSON_ORGANIZATION ( #289, #199, #118 ) ;
#233 = CARTESIAN_POINT ( 'NONE',  ( 0.000000000000000000, 0.000000000000000000, 320.0000000000000000 ) ) ;
#234 = CIRCLE ( 'NONE', #294, 3.100000000000000089 ) ;
#235 = APPROVAL_DATE_TIME ( #280, #199 ) ;
#236 = APPROVAL_PERSON_ORGANIZATION ( #3, #230, #74 ) ;
#237 = EDGE_LOOP ( 'NONE', ( #24, #48, #148, #70 ) ) ;
#238 = APPROVAL_DATE_TIME ( #126, #208 ) ;
#239 = ADVANCED_FACE ( 'NONE', ( #203 ), #80, .T. ) ;
#240 = EDGE_LOOP ( 'NONE', ( #266, #75, #283, #81 ) ) ;
#241 = EDGE_LOOP ( 'NONE', ( #163, #4 ) ) ;
#242 = AXIS2_PLACEMENT_3D ( 'NONE', #195, #300, #290 ) ;
#243 = COORDINATED_UNIVERSAL_TIME_OFFSET ( 1, 0, .AHEAD. ) ;
#244 = LOCAL_TIME ( 14, 40, 4.000000000000000000, #243 ) ;
#245 = ORIENTED_EDGE ( 'NONE', *, *, #278, .F. ) ;
#246 = CALENDAR_DATE ( 2022, 7, 7 ) ;
#247 = CARTESIAN_POINT ( 'NONE',  ( 6.000000000000000888, 7.347880794884120722E-16, 0.000000000000000000 ) ) ;
#248 = CARTESIAN_POINT ( 'NONE',  ( -3.100000000000000089, 0.000000000000000000, 5.199999999999982414 ) ) ;
#249 = DIRECTION ( 'NONE',  ( 1.000000000000000000, 0.000000000000000000, 0.000000000000000000 ) ) ;
#250 = DIRECTION ( 'NONE',  ( -0.000000000000000000, -0.000000000000000000, -1.000000000000000000 ) ) ;
#251 = AXIS2_PLACEMENT_3D ( 'NONE', #227, #134, #224 ) ;
#252 = DIRECTION ( 'NONE',  ( -0.000000000000000000, -0.000000000000000000, -1.000000000000000000 ) ) ;
#253 =( NAMED_UNIT ( * ) SI_UNIT ( $, .STERADIAN. ) SOLID_ANGLE_UNIT ( ) );
#254 = EDGE_CURVE ( 'NONE', #123, #26, #13, .T. ) ;
#255 = DIRECTION ( 'NONE',  ( 1.000000000000000000, 0.000000000000000000, 0.000000000000000000 ) ) ;
#256 = CARTESIAN_POINT ( 'NONE',  ( 0.000000000000000000, 0.000000000000000000, 0.000000000000000000 ) ) ;
#257 = LOCAL_TIME ( 14, 40, 4.000000000000000000, #219 ) ;
#258 = EDGE_CURVE ( 'NONE', #281, #47, #66, .T. ) ;
#259 = CIRCLE ( 'NONE', #279, 6.000000000000000888 ) ;
#260 = APPLICATION_CONTEXT ( 'configuration controlled 3d designs of mechanical parts and assemblies' ) ;
#261 = PRODUCT_DEFINITION_SHAPE ( 'NONE', 'NONE',  #72 ) ;
#262 = COORDINATED_UNIVERSAL_TIME_OFFSET ( 1, 0, .AHEAD. ) ;
#263 = VERTEX_POINT ( 'NONE', #41 ) ;
#264 = LOCAL_TIME ( 14, 40, 4.000000000000000000, #147 ) ;
#265 = ORIENTED_EDGE ( 'NONE', *, *, #1, .T. ) ;
#266 = ORIENTED_EDGE ( 'NONE', *, *, #139, .F. ) ;
#267 = ORIENTED_EDGE ( 'NONE', *, *, #305, .F. ) ;
#268 = CIRCLE ( 'NONE', #171, 3.299999999999999822 ) ;
#269 = APPLICATION_PROTOCOL_DEFINITION ( 'international standard', 'config_control_design', 1994, #44 ) ;
#270 = DIRECTION ( 'NONE',  ( 0.000000000000000000, 0.000000000000000000, 1.000000000000000000 ) ) ;
#271 = CARTESIAN_POINT ( 'NONE',  ( 0.000000000000000000, 0.000000000000000000, 5.199999999999982414 ) ) ;
#272 = DIRECTION ( 'NONE',  ( -0.000000000000000000, -0.000000000000000000, -1.000000000000000000 ) ) ;
#273 = DIRECTION ( 'NONE',  ( 0.000000000000000000, 0.000000000000000000, 1.000000000000000000 ) ) ;
#274 = DIRECTION ( 'NONE',  ( 1.000000000000000000, 0.000000000000000000, 0.000000000000000000 ) ) ;
#275 = AXIS2_PLACEMENT_3D ( 'NONE', #233, #86, #129 ) ;
#276 = EDGE_CURVE ( 'NONE', #212, #29, #132, .T. ) ;
#277 = DIRECTION ( 'NONE',  ( 0.000000000000000000, 0.000000000000000000, 1.000000000000000000 ) ) ;
#278 = EDGE_CURVE ( 'NONE', #212, #123, #63, .T. ) ;
#279 = AXIS2_PLACEMENT_3D ( 'NONE', #286, #73, #167 ) ;
#280 = DATE_AND_TIME ( #67, #18 ) ;
#281 = VERTEX_POINT ( 'NONE', #298 ) ;
#282 = EDGE_CURVE ( 'NONE', #190, #281, #19, .T. ) ;
#283 = ORIENTED_EDGE ( 'NONE', *, *, #282, .T. ) ;
#284 = VECTOR ( 'NONE', #303, 1000.000000000000000 ) ;
#285 = CALENDAR_DATE ( 2022, 7, 7 ) ;
#286 = CARTESIAN_POINT ( 'NONE',  ( 0.000000000000000000, 0.000000000000000000, 5.000000000000000000 ) ) ;
#287 = PERSON_AND_ORGANIZATION_ROLE ( 'classification_officer' ) ;
#288 = EDGE_LOOP ( 'NONE', ( #267, #214, #51, #8 ) ) ;
#289 = PERSON_AND_ORGANIZATION ( #87, #43 ) ;
#290 = DIRECTION ( 'NONE',  ( 1.000000000000000000, 0.000000000000000000, -0.000000000000000000 ) ) ;
#291 = VERTEX_POINT ( 'NONE', #179 ) ;
#292 = DATE_TIME_ROLE ( 'classification_date' ) ;
#293 = FACE_OUTER_BOUND ( 'NONE', #237, .T. ) ;
#294 = AXIS2_PLACEMENT_3D ( 'NONE', #37, #39, #201 ) ;
#295 = FACE_OUTER_BOUND ( 'NONE', #184, .T. ) ;
#296 = CARTESIAN_POINT ( 'NONE',  ( 3.100000000000000089, 3.796405077356794918E-16, 320.0000000000000000 ) ) ;
#297 = FACE_OUTER_BOUND ( 'NONE', #187, .T. ) ;
#298 = CARTESIAN_POINT ( 'NONE',  ( -6.000000000000000888, 0.000000000000000000, 0.000000000000000000 ) ) ;
#299 = CC_DESIGN_PERSON_AND_ORGANIZATION_ASSIGNMENT ( #221, #124, ( #307 ) ) ;
#300 = DIRECTION ( 'NONE',  ( 0.000000000000000000, 0.000000000000000000, 1.000000000000000000 ) ) ;
#301 = DIRECTION ( 'NONE',  ( -1.000000000000000000, 0.000000000000000000, 0.000000000000000000 ) ) ;
#302 = AXIS2_PLACEMENT_3D ( 'NONE', #146, #218, #99 ) ;
#303 = DIRECTION ( 'NONE',  ( -0.000000000000000000, -0.000000000000000000, -1.000000000000000000 ) ) ;
#304 = VECTOR ( 'NONE', #131, 1000.000000000000000 ) ;
#305 = EDGE_CURVE ( 'NONE', #123, #212, #36, .T. ) ;
#306 = PRODUCT ( '364a', '364a', '', ( #49 ) ) ;
#307 = PRODUCT_DEFINITION_FORMATION_WITH_SPECIFIED_SOURCE ( 'LIBOVOLNÝ', '', #306, .NOT_KNOWN. ) ;
ENDSEC;
END-ISO-10303-21;
