ISO-10303-21;
HEADER;
FILE_DESCRIPTION (( 'STEP AP203' ),
    '1' );
FILE_NAME ('a630.STEP',
    '2022-07-07T12:18:00',
    ( '' ),
    ( '' ),
    'SwSTEP 2.0',
    'SolidWorks 2019',
    '' );
FILE_SCHEMA (( 'CONFIG_CONTROL_DESIGN' ));
ENDSEC;

DATA;
#1 = AXIS2_PLACEMENT_3D ( 'NONE', #67, #299, #44 ) ;
#2 = VECTOR ( 'NONE', #73, 1000.000000000000000 ) ;
#3 = APPROVAL ( #33, 'NEURÈENÝ' ) ;
#4 = PERSON_AND_ORGANIZATION ( #291, #304 ) ;
#5 = EDGE_LOOP ( 'NONE', ( #10, #58, #39, #81 ) ) ;
#6 = SECURITY_CLASSIFICATION_LEVEL ( 'unclassified' ) ;
#7 = ORIENTED_EDGE ( 'NONE', *, *, #217, .F. ) ;
#8 = DATE_AND_TIME ( #269, #172 ) ;
#9 = SECURITY_CLASSIFICATION ( '', '', #6 ) ;
#10 = ORIENTED_EDGE ( 'NONE', *, *, #192, .F. ) ;
#11 = APPROVAL_STATUS ( 'not_yet_approved' ) ;
#12 = DIRECTION ( 'NONE',  ( 0.000000000000000000, 0.000000000000000000, 1.000000000000000000 ) ) ;
#13 = UNCERTAINTY_MEASURE_WITH_UNIT (LENGTH_MEASURE( 1.000000000000000082E-05 ), #188, 'distance_accuracy_value', 'NONE');
#14 = PERSON_AND_ORGANIZATION_ROLE ( 'classification_officer' ) ;
#15 = DIRECTION ( 'NONE',  ( -0.000000000000000000, -0.000000000000000000, -1.000000000000000000 ) ) ;
#16 = EDGE_LOOP ( 'NONE', ( #43, #101 ) ) ;
#17 = DIRECTION ( 'NONE',  ( 0.000000000000000000, 0.000000000000000000, 1.000000000000000000 ) ) ;
#18 = APPROVAL_PERSON_ORGANIZATION ( #157, #3, #244 ) ;
#19 = APPROVAL ( #11, 'NEURÈENÝ' ) ;
#20 = CARTESIAN_POINT ( 'NONE',  ( 0.000000000000000000, 0.000000000000000000, 8.199999999999985079 ) ) ;
#21 = FACE_OUTER_BOUND ( 'NONE', #218, .T. ) ;
#22 = CARTESIAN_POINT ( 'NONE',  ( 0.000000000000000000, 0.000000000000000000, 8.000000000000000000 ) ) ;
#23 = PLANE ( 'NONE',  #118 ) ;
#24 = DIRECTION ( 'NONE',  ( 0.000000000000000000, 0.000000000000000000, 1.000000000000000000 ) ) ;
#25 = AXIS2_PLACEMENT_3D ( 'NONE', #249, #12, #136 ) ;
#26 = APPROVAL_PERSON_ORGANIZATION ( #203, #19, #201 ) ;
#27 = DIRECTION ( 'NONE',  ( -1.000000000000000000, 0.000000000000000000, 0.000000000000000000 ) ) ;
#28 = CARTESIAN_POINT ( 'NONE',  ( -13.00000000000000178, 0.000000000000000000, 8.000000000000000000 ) ) ;
#29 = CC_DESIGN_DATE_AND_TIME_ASSIGNMENT ( #198, #179, ( #151 ) ) ;
#30 = EDGE_CURVE ( 'NONE', #272, #227, #264, .T. ) ;
#31 = AXIS2_PLACEMENT_3D ( 'NONE', #237, #24, #305 ) ;
#32 = CIRCLE ( 'NONE', #31, 10.00000000000000000 ) ;
#33 = APPROVAL_STATUS ( 'not_yet_approved' ) ;
#34 = MANIFOLD_SOLID_BREP ( 'Zaoblit1', #54 ) ;
#35 = VERTEX_POINT ( 'NONE', #200 ) ;
#36 = ORIENTED_EDGE ( 'NONE', *, *, #127, .F. ) ;
#37 = APPLICATION_CONTEXT ( 'configuration controlled 3d designs of mechanical parts and assemblies' ) ;
#38 = APPLICATION_PROTOCOL_DEFINITION ( 'international standard', 'config_control_design', 1994, #98 ) ;
#39 = ORIENTED_EDGE ( 'NONE', *, *, #301, .T. ) ;
#40 = AXIS2_PLACEMENT_3D ( 'NONE', #208, #15, #92 ) ;
#41 = PERSON_AND_ORGANIZATION_ROLE ( 'creator' ) ;
#42 = DIRECTION ( 'NONE',  ( -0.000000000000000000, -0.000000000000000000, -1.000000000000000000 ) ) ;
#43 = ORIENTED_EDGE ( 'NONE', *, *, #30, .F. ) ;
#44 = DIRECTION ( 'NONE',  ( 1.000000000000000000, 0.000000000000000000, 0.000000000000000000 ) ) ;
#45 = CC_DESIGN_DATE_AND_TIME_ASSIGNMENT ( #220, #248, ( #9 ) ) ;
#46 = CARTESIAN_POINT ( 'NONE',  ( 0.000000000000000000, 0.000000000000000000, 8.199999999999985079 ) ) ;
#47 = CARTESIAN_POINT ( 'NONE',  ( -10.20000000000000107, 1.249139735130300365E-15, 7.999999999999992895 ) ) ;
#48 = CARTESIAN_POINT ( 'NONE',  ( 0.000000000000000000, 0.000000000000000000, 323.0000000000000000 ) ) ;
#49 = DIRECTION ( 'NONE',  ( 0.000000000000000000, 0.000000000000000000, 1.000000000000000000 ) ) ;
#50 = DIRECTION ( 'NONE',  ( -0.000000000000000000, -0.000000000000000000, -1.000000000000000000 ) ) ;
#51 = CARTESIAN_POINT ( 'NONE',  ( 0.000000000000000000, 0.000000000000000000, 8.000000000000000000 ) ) ;
#52 = CARTESIAN_POINT ( 'NONE',  ( 0.000000000000000000, 0.000000000000000000, 8.000000000000000000 ) ) ;
#53 = EDGE_CURVE ( 'NONE', #35, #202, #143, .T. ) ;
#54 = CLOSED_SHELL ( 'NONE', ( #150, #251, #260, #121, #184, #145, #138, #80, #174 ) ) ;
#55 = EDGE_CURVE ( 'NONE', #158, #297, #286, .T. ) ;
#56 = CC_DESIGN_SECURITY_CLASSIFICATION ( #9, ( #152 ) ) ;
#57 = MECHANICAL_CONTEXT ( 'NONE', #37, 'mechanical' ) ;
#58 = ORIENTED_EDGE ( 'NONE', *, *, #87, .T. ) ;
#59 = CALENDAR_DATE ( 2022, 7, 7 ) ;
#60 = DIRECTION ( 'NONE',  ( 1.000000000000000000, 0.000000000000000000, 0.000000000000000000 ) ) ;
#61 = APPROVAL_ROLE ( '' ) ;
#62 = VERTEX_POINT ( 'NONE', #112 ) ;
#63 = DATE_AND_TIME ( #292, #266 ) ;
#64 = LOCAL_TIME ( 14, 18, 0.000000000000000000, #221 ) ;
#65 = ORIENTED_EDGE ( 'NONE', *, *, #267, .T. ) ;
#66 = PERSON_AND_ORGANIZATION ( #291, #304 ) ;
#67 = CARTESIAN_POINT ( 'NONE',  ( 0.000000000000000000, 0.000000000000000000, 0.000000000000000000 ) ) ;
#68 = EDGE_CURVE ( 'NONE', #176, #160, #238, .T. ) ;
#69 = FACE_OUTER_BOUND ( 'NONE', #196, .T. ) ;
#70 = CYLINDRICAL_SURFACE ( 'NONE', #212, 10.00000000000000000 ) ;
#71 = DIRECTION ( 'NONE',  ( 0.000000000000000000, 0.000000000000000000, 1.000000000000000000 ) ) ;
#72 = DIRECTION ( 'NONE',  ( 0.000000000000000000, 0.000000000000000000, 1.000000000000000000 ) ) ;
#73 = DIRECTION ( 'NONE',  ( -0.000000000000000000, -0.000000000000000000, -1.000000000000000000 ) ) ;
#74 =( NAMED_UNIT ( * ) SI_UNIT ( $, .STERADIAN. ) SOLID_ANGLE_UNIT ( ) );
#75 = AXIS2_PLACEMENT_3D ( 'NONE', #120, #50, #27 ) ;
#76 = EDGE_CURVE ( 'NONE', #227, #272, #259, .T. ) ;
#77 = AXIS2_PLACEMENT_3D ( 'NONE', #141, #204, #166 ) ;
#78 = ORIENTED_EDGE ( 'NONE', *, *, #255, .T. ) ;
#79 = SHAPE_DEFINITION_REPRESENTATION ( #178, #115 ) ;
#80 = ADVANCED_FACE ( 'NONE', ( #21 ), #236, .T. ) ;
#81 = ORIENTED_EDGE ( 'NONE', *, *, #94, .F. ) ;
#82 = APPROVAL_DATE_TIME ( #63, #3 ) ;
#83 = ORIENTED_EDGE ( 'NONE', *, *, #199, .T. ) ;
#84 = APPROVAL_DATE_TIME ( #289, #19 ) ;
#85 = PRODUCT ( 'a630', 'a630', '', ( #57 ) ) ;
#86 = ORIENTED_EDGE ( 'NONE', *, *, #207, .T. ) ;
#87 = EDGE_CURVE ( 'NONE', #297, #62, #91, .T. ) ;
#88 = FACE_BOUND ( 'NONE', #268, .T. ) ;
#89 = CC_DESIGN_APPROVAL ( #19, ( #9 ) ) ;
#90 = DIRECTION ( 'NONE',  ( -0.000000000000000000, -0.000000000000000000, -1.000000000000000000 ) ) ;
#91 = LINE ( 'NONE', #185, #173 ) ;
#92 = DIRECTION ( 'NONE',  ( -1.000000000000000000, 0.000000000000000000, 0.000000000000000000 ) ) ;
#93 = LINE ( 'NONE', #28, #2 ) ;
#94 = EDGE_CURVE ( 'NONE', #158, #176, #278, .T. ) ;
#95 = CARTESIAN_POINT ( 'NONE',  ( 0.000000000000000000, 0.000000000000000000, 8.000000000000000000 ) ) ;
#96 = CC_DESIGN_PERSON_AND_ORGANIZATION_ASSIGNMENT ( #109, #126, ( #152 ) ) ;
#97 = CARTESIAN_POINT ( 'NONE',  ( -13.00000000000000178, 0.000000000000000000, 8.000000000000000000 ) ) ;
#98 = APPLICATION_CONTEXT ( 'configuration controlled 3d designs of mechanical parts and assemblies' ) ;
#99 = CIRCLE ( 'NONE', #170, 0.2000000000000005107 ) ;
#100 = DIRECTION ( 'NONE',  ( 1.000000000000000000, 0.000000000000000000, 0.000000000000000000 ) ) ;
#101 = ORIENTED_EDGE ( 'NONE', *, *, #76, .F. ) ;
#102 = APPROVAL_DATE_TIME ( #8, #283 ) ;
#103 = ORIENTED_EDGE ( 'NONE', *, *, #267, .F. ) ;
#104 = AXIS2_PLACEMENT_3D ( 'NONE', #107, #106, #60 ) ;
#105 = COORDINATED_UNIVERSAL_TIME_OFFSET ( 1, 0, .AHEAD. ) ;
#106 = DIRECTION ( 'NONE',  ( 0.000000000000000000, 0.000000000000000000, 1.000000000000000000 ) ) ;
#107 = CARTESIAN_POINT ( 'NONE',  ( 0.000000000000000000, 0.000000000000000000, 0.000000000000000000 ) ) ;
#108 = CC_DESIGN_PERSON_AND_ORGANIZATION_ASSIGNMENT ( #66, #153, ( #85 ) ) ;
#109 = PERSON_AND_ORGANIZATION ( #291, #304 ) ;
#110 = DIRECTION ( 'NONE',  ( 0.000000000000000000, 0.000000000000000000, 1.000000000000000000 ) ) ;
#111 = ORIENTED_EDGE ( 'NONE', *, *, #68, .T. ) ;
#112 = CARTESIAN_POINT ( 'NONE',  ( 10.00000000000000000, 1.224646799147353256E-15, 8.199999999999985079 ) ) ;
#113 = FACE_OUTER_BOUND ( 'NONE', #293, .T. ) ;
#114 = CARTESIAN_POINT ( 'NONE',  ( -10.00000000000000000, 0.000000000000000000, 323.0000000000000000 ) ) ;
#115 = ADVANCED_BREP_SHAPE_REPRESENTATION ( 'a630', ( #34, #206 ), #169 ) ;
#116 = PRODUCT_RELATED_PRODUCT_CATEGORY ( 'detail', '', ( #85 ) ) ;
#117 = DIRECTION ( 'NONE',  ( 1.000000000000000000, 0.000000000000000000, 0.000000000000000000 ) ) ;
#118 = AXIS2_PLACEMENT_3D ( 'NONE', #186, #71, #302 ) ;
#119 = CIRCLE ( 'NONE', #298, 10.00000000000000000 ) ;
#120 = CARTESIAN_POINT ( 'NONE',  ( 0.000000000000000000, 0.000000000000000000, 323.0000000000000000 ) ) ;
#121 = ADVANCED_FACE ( 'NONE', ( #233 ), #256, .T. ) ;
#122 = DIRECTION ( 'NONE',  ( 1.000000000000000000, 0.000000000000000000, 0.000000000000000000 ) ) ;
#123 = AXIS2_PLACEMENT_3D ( 'NONE', #303, #171, #117 ) ;
#124 = CIRCLE ( 'NONE', #197, 10.00000000000000000 ) ;
#125 = VECTOR ( 'NONE', #42, 1000.000000000000000 ) ;
#126 = PERSON_AND_ORGANIZATION_ROLE ( 'design_supplier' ) ;
#127 = EDGE_CURVE ( 'NONE', #176, #62, #124, .T. ) ;
#128 = EDGE_LOOP ( 'NONE', ( #287, #245 ) ) ;
#129 = EDGE_LOOP ( 'NONE', ( #36, #111, #252, #7 ) ) ;
#130 = PERSON_AND_ORGANIZATION ( #291, #304 ) ;
#131 = AXIS2_PLACEMENT_3D ( 'NONE', #280, #229, #300 ) ;
#132 = ORIENTED_EDGE ( 'NONE', *, *, #76, .T. ) ;
#133 = DIRECTION ( 'NONE',  ( 0.000000000000000000, 0.000000000000000000, 1.000000000000000000 ) ) ;
#134 = CARTESIAN_POINT ( 'NONE',  ( 0.000000000000000000, 0.000000000000000000, 323.0000000000000000 ) ) ;
#135 = ORIENTED_EDGE ( 'NONE', *, *, #55, .F. ) ;
#136 = DIRECTION ( 'NONE',  ( 1.000000000000000000, 0.000000000000000000, 0.000000000000000000 ) ) ;
#137 = CARTESIAN_POINT ( 'NONE',  ( 0.000000000000000000, 0.000000000000000000, 323.0000000000000000 ) ) ;
#138 = ADVANCED_FACE ( 'NONE', ( #113 ), #70, .T. ) ;
#139 = CARTESIAN_POINT ( 'NONE',  ( -10.00000000000000000, 0.000000000000000000, 8.199999999999985079 ) ) ;
#140 = DIRECTION ( 'NONE',  ( 0.000000000000000000, 0.000000000000000000, -1.000000000000000000 ) ) ;
#141 = CARTESIAN_POINT ( 'NONE',  ( 0.000000000000000000, 0.000000000000000000, 8.199999999999985079 ) ) ;
#142 = CARTESIAN_POINT ( 'NONE',  ( 10.00000000000000000, 1.224646799147353256E-15, 323.0000000000000000 ) ) ;
#143 = CIRCLE ( 'NONE', #25, 13.00000000000000178 ) ;
#144 = CIRCLE ( 'NONE', #263, 10.20000000000000107 ) ;
#145 = ADVANCED_FACE ( 'NONE', ( #165 ), #23, .F. ) ;
#146 = DIRECTION ( 'NONE',  ( 1.000000000000000000, 0.000000000000000000, 0.000000000000000000 ) ) ;
#147 = DIRECTION ( 'NONE',  ( -0.000000000000000000, -0.000000000000000000, -1.000000000000000000 ) ) ;
#148 = FACE_OUTER_BOUND ( 'NONE', #180, .T. ) ;
#149 = CIRCLE ( 'NONE', #123, 13.00000000000000178 ) ;
#150 = ADVANCED_FACE ( 'NONE', ( #183 ), #214, .F. ) ;
#151 = PRODUCT_DEFINITION ( 'NEZNÁMÝ', '', #152, #161 ) ;
#152 = PRODUCT_DEFINITION_FORMATION_WITH_SPECIFIED_SOURCE ( 'LIBOVOLNÝ', '', #85, .NOT_KNOWN. ) ;
#153 = PERSON_AND_ORGANIZATION_ROLE ( 'design_owner' ) ;
#154 = EDGE_LOOP ( 'NONE', ( #230, #247, #83, #222 ) ) ;
#155 = PERSON_AND_ORGANIZATION_ROLE ( 'creator' ) ;
#156 = ORIENTED_EDGE ( 'NONE', *, *, #127, .T. ) ;
#157 = PERSON_AND_ORGANIZATION ( #291, #304 ) ;
#158 = VERTEX_POINT ( 'NONE', #277 ) ;
#159 = COORDINATED_UNIVERSAL_TIME_OFFSET ( 1, 0, .AHEAD. ) ;
#160 = VERTEX_POINT ( 'NONE', #47 ) ;
#161 = DESIGN_CONTEXT ( 'detailed design', #98, 'design' ) ;
#162 = COORDINATED_UNIVERSAL_TIME_OFFSET ( 1, 0, .AHEAD. ) ;
#163 = PLANE ( 'NONE',  #225 ) ;
#164 = DIRECTION ( 'NONE',  ( -0.000000000000000000, -0.000000000000000000, -1.000000000000000000 ) ) ;
#165 = FACE_OUTER_BOUND ( 'NONE', #16, .T. ) ;
#166 = DIRECTION ( 'NONE',  ( 1.000000000000000000, 0.000000000000000000, 0.000000000000000000 ) ) ;
#167 = CARTESIAN_POINT ( 'NONE',  ( -13.00000000000000178, 0.000000000000000000, 0.000000000000000000 ) ) ;
#168 = DIRECTION ( 'NONE',  ( 0.000000000000000000, -1.000000000000000000, 0.000000000000000000 ) ) ;
#169 =( GEOMETRIC_REPRESENTATION_CONTEXT ( 3 ) GLOBAL_UNCERTAINTY_ASSIGNED_CONTEXT ( ( #13 ) ) GLOBAL_UNIT_ASSIGNED_CONTEXT ( ( #188, #307, #74 ) ) REPRESENTATION_CONTEXT ( 'NONE', 'WORKASPACE' ) );
#170 = AXIS2_PLACEMENT_3D ( 'NONE', #240, #168, #140 ) ;
#171 = DIRECTION ( 'NONE',  ( 0.000000000000000000, 0.000000000000000000, 1.000000000000000000 ) ) ;
#172 = LOCAL_TIME ( 14, 18, 0.000000000000000000, #162 ) ;
#173 = VECTOR ( 'NONE', #164, 1000.000000000000000 ) ;
#174 = ADVANCED_FACE ( 'NONE', ( #69 ), #288, .F. ) ;
#175 = ORIENTED_EDGE ( 'NONE', *, *, #301, .F. ) ;
#176 = VERTEX_POINT ( 'NONE', #139 ) ;
#177 = ORIENTED_EDGE ( 'NONE', *, *, #55, .T. ) ;
#178 = PRODUCT_DEFINITION_SHAPE ( 'NONE', 'NONE',  #151 ) ;
#179 = DATE_TIME_ROLE ( 'creation_date' ) ;
#180 = EDGE_LOOP ( 'NONE', ( #295, #78, #132, #270 ) ) ;
#181 = AXIS2_PLACEMENT_3D ( 'NONE', #232, #17, #234 ) ;
#182 = DIRECTION ( 'NONE',  ( -1.000000000000000000, 0.000000000000000000, 0.000000000000000000 ) ) ;
#183 = FACE_OUTER_BOUND ( 'NONE', #129, .T. ) ;
#184 = ADVANCED_FACE ( 'NONE', ( #88, #253 ), #163, .T. ) ;
#185 = CARTESIAN_POINT ( 'NONE',  ( 10.00000000000000000, 1.224646799147353256E-15, 323.0000000000000000 ) ) ;
#186 = CARTESIAN_POINT ( 'NONE',  ( 0.000000000000000000, 0.000000000000000000, 0.000000000000000000 ) ) ;
#187 = FACE_OUTER_BOUND ( 'NONE', #5, .T. ) ;
#188 =( LENGTH_UNIT ( ) NAMED_UNIT ( * ) SI_UNIT ( .MILLI., .METRE. ) );
#189 = CIRCLE ( 'NONE', #243, 10.20000000000000107 ) ;
#190 = CC_DESIGN_PERSON_AND_ORGANIZATION_ASSIGNMENT ( #228, #155, ( #152 ) ) ;
#191 = AXIS2_PLACEMENT_3D ( 'NONE', #51, #281, #216 ) ;
#192 = EDGE_CURVE ( 'NONE', #297, #158, #119, .T. ) ;
#193 = CALENDAR_DATE ( 2022, 7, 7 ) ;
#194 = ORIENTED_EDGE ( 'NONE', *, *, #94, .T. ) ;
#195 = COORDINATED_UNIVERSAL_TIME_OFFSET ( 1, 0, .AHEAD. ) ;
#196 = EDGE_LOOP ( 'NONE', ( #224, #175, #205, #103 ) ) ;
#197 = AXIS2_PLACEMENT_3D ( 'NONE', #20, #110, #210 ) ;
#198 = DATE_AND_TIME ( #59, #219 ) ;
#199 = EDGE_CURVE ( 'NONE', #202, #272, #93, .T. ) ;
#200 = CARTESIAN_POINT ( 'NONE',  ( 13.00000000000000178, 1.592040838891559293E-15, 8.000000000000000000 ) ) ;
#201 = APPROVAL_ROLE ( '' ) ;
#202 = VERTEX_POINT ( 'NONE', #97 ) ;
#203 = PERSON_AND_ORGANIZATION ( #291, #304 ) ;
#204 = DIRECTION ( 'NONE',  ( 0.000000000000000000, 0.000000000000000000, 1.000000000000000000 ) ) ;
#205 = ORIENTED_EDGE ( 'NONE', *, *, #217, .T. ) ;
#206 = AXIS2_PLACEMENT_3D ( 'NONE', #265, #133, #100 ) ;
#207 = EDGE_CURVE ( 'NONE', #290, #160, #144, .T. ) ;
#208 = CARTESIAN_POINT ( 'NONE',  ( 0.000000000000000000, 0.000000000000000000, 8.000000000000000000 ) ) ;
#209 = DIRECTION ( 'NONE',  ( 0.000000000000000000, 0.000000000000000000, 1.000000000000000000 ) ) ;
#210 = DIRECTION ( 'NONE',  ( 1.000000000000000000, 0.000000000000000000, 0.000000000000000000 ) ) ;
#211 = CARTESIAN_POINT ( 'NONE',  ( 13.00000000000000178, 1.592040838891559293E-15, 8.000000000000000000 ) ) ;
#212 = AXIS2_PLACEMENT_3D ( 'NONE', #137, #90, #182 ) ;
#213 = VECTOR ( 'NONE', #147, 1000.000000000000000 ) ;
#214 = TOROIDAL_SURFACE ( 'NONE', #77, 10.20000000000000107, 0.2000000000000000111 ) ;
#215 = CYLINDRICAL_SURFACE ( 'NONE', #191, 13.00000000000000178 ) ;
#216 = DIRECTION ( 'NONE',  ( -1.000000000000000000, 0.000000000000000000, 0.000000000000000000 ) ) ;
#217 = EDGE_CURVE ( 'NONE', #62, #290, #99, .T. ) ;
#218 = EDGE_LOOP ( 'NONE', ( #177, #285 ) ) ;
#219 = LOCAL_TIME ( 14, 18, 0.000000000000000000, #159 ) ;
#220 = DATE_AND_TIME ( #226, #64 ) ;
#221 = COORDINATED_UNIVERSAL_TIME_OFFSET ( 1, 0, .AHEAD. ) ;
#222 = ORIENTED_EDGE ( 'NONE', *, *, #30, .T. ) ;
#223 = AXIS2_PLACEMENT_3D ( 'NONE', #134, #209, #276 ) ;
#224 = ORIENTED_EDGE ( 'NONE', *, *, #68, .F. ) ;
#225 = AXIS2_PLACEMENT_3D ( 'NONE', #95, #72, #235 ) ;
#226 = CALENDAR_DATE ( 2022, 7, 7 ) ;
#227 = VERTEX_POINT ( 'NONE', #282 ) ;
#228 = PERSON_AND_ORGANIZATION ( #291, #304 ) ;
#229 = DIRECTION ( 'NONE',  ( 1.224646799147353207E-16, 1.000000000000000000, -0.000000000000000000 ) ) ;
#230 = ORIENTED_EDGE ( 'NONE', *, *, #255, .F. ) ;
#231 = CC_DESIGN_PERSON_AND_ORGANIZATION_ASSIGNMENT ( #130, #41, ( #151 ) ) ;
#232 = CARTESIAN_POINT ( 'NONE',  ( 0.000000000000000000, 0.000000000000000000, 323.0000000000000000 ) ) ;
#233 = FACE_OUTER_BOUND ( 'NONE', #154, .T. ) ;
#234 = DIRECTION ( 'NONE',  ( 1.000000000000000000, 0.000000000000000000, -0.000000000000000000 ) ) ;
#235 = DIRECTION ( 'NONE',  ( 1.000000000000000000, 0.000000000000000000, -0.000000000000000000 ) ) ;
#236 = PLANE ( 'NONE',  #181 ) ;
#237 = CARTESIAN_POINT ( 'NONE',  ( 0.000000000000000000, 0.000000000000000000, 8.199999999999985079 ) ) ;
#238 = CIRCLE ( 'NONE', #131, 0.2000000000000005107 ) ;
#239 = LOCAL_TIME ( 14, 18, 0.000000000000000000, #195 ) ;
#240 = CARTESIAN_POINT ( 'NONE',  ( 10.20000000000000107, 0.000000000000000000, 8.199999999999985079 ) ) ;
#241 = DIRECTION ( 'NONE',  ( 0.000000000000000000, 0.000000000000000000, 1.000000000000000000 ) ) ;
#242 = AXIS2_PLACEMENT_3D ( 'NONE', #46, #49, #296 ) ;
#243 = AXIS2_PLACEMENT_3D ( 'NONE', #52, #306, #254 ) ;
#244 = APPROVAL_ROLE ( '' ) ;
#245 = ORIENTED_EDGE ( 'NONE', *, *, #53, .T. ) ;
#246 = EDGE_CURVE ( 'NONE', #202, #35, #149, .T. ) ;
#247 = ORIENTED_EDGE ( 'NONE', *, *, #246, .F. ) ;
#248 = DATE_TIME_ROLE ( 'classification_date' ) ;
#249 = CARTESIAN_POINT ( 'NONE',  ( 0.000000000000000000, 0.000000000000000000, 8.000000000000000000 ) ) ;
#250 = CC_DESIGN_APPROVAL ( #3, ( #152 ) ) ;
#251 = ADVANCED_FACE ( 'NONE', ( #187 ), #258, .T. ) ;
#252 = ORIENTED_EDGE ( 'NONE', *, *, #207, .F. ) ;
#253 = FACE_OUTER_BOUND ( 'NONE', #128, .T. ) ;
#254 = DIRECTION ( 'NONE',  ( 1.000000000000000000, 0.000000000000000000, 0.000000000000000000 ) ) ;
#255 = EDGE_CURVE ( 'NONE', #35, #227, #262, .T. ) ;
#256 = CYLINDRICAL_SURFACE ( 'NONE', #40, 13.00000000000000178 ) ;
#257 = CARTESIAN_POINT ( 'NONE',  ( 10.20000000000000107, 0.000000000000000000, 7.999999999999992895 ) ) ;
#258 = CYLINDRICAL_SURFACE ( 'NONE', #75, 10.00000000000000000 ) ;
#259 = CIRCLE ( 'NONE', #1, 13.00000000000000178 ) ;
#260 = ADVANCED_FACE ( 'NONE', ( #148 ), #215, .T. ) ;
#261 = DIRECTION ( 'NONE',  ( -0.000000000000000000, -0.000000000000000000, -1.000000000000000000 ) ) ;
#262 = LINE ( 'NONE', #211, #213 ) ;
#263 = AXIS2_PLACEMENT_3D ( 'NONE', #22, #261, #122 ) ;
#264 = CIRCLE ( 'NONE', #104, 13.00000000000000178 ) ;
#265 = CARTESIAN_POINT ( 'NONE',  ( 0.000000000000000000, 0.000000000000000000, 0.000000000000000000 ) ) ;
#266 = LOCAL_TIME ( 14, 18, 0.000000000000000000, #105 ) ;
#267 = EDGE_CURVE ( 'NONE', #160, #290, #189, .T. ) ;
#268 = EDGE_LOOP ( 'NONE', ( #86, #65 ) ) ;
#269 = CALENDAR_DATE ( 2022, 7, 7 ) ;
#270 = ORIENTED_EDGE ( 'NONE', *, *, #199, .F. ) ;
#271 = PERSON_AND_ORGANIZATION ( #291, #304 ) ;
#272 = VERTEX_POINT ( 'NONE', #167 ) ;
#273 = ORIENTED_EDGE ( 'NONE', *, *, #87, .F. ) ;
#274 = APPROVAL_PERSON_ORGANIZATION ( #4, #283, #61 ) ;
#275 = APPROVAL_STATUS ( 'not_yet_approved' ) ;
#276 = DIRECTION ( 'NONE',  ( 1.000000000000000000, 0.000000000000000000, 0.000000000000000000 ) ) ;
#277 = CARTESIAN_POINT ( 'NONE',  ( -10.00000000000000000, 0.000000000000000000, 323.0000000000000000 ) ) ;
#278 = LINE ( 'NONE', #114, #125 ) ;
#279 = CC_DESIGN_PERSON_AND_ORGANIZATION_ASSIGNMENT ( #271, #14, ( #9 ) ) ;
#280 = CARTESIAN_POINT ( 'NONE',  ( -10.20000000000000107, 1.249139735130300365E-15, 8.199999999999985079 ) ) ;
#281 = DIRECTION ( 'NONE',  ( -0.000000000000000000, -0.000000000000000000, -1.000000000000000000 ) ) ;
#282 = CARTESIAN_POINT ( 'NONE',  ( 13.00000000000000178, 1.592040838891559293E-15, 0.000000000000000000 ) ) ;
#283 = APPROVAL ( #275, 'NEURÈENÝ' ) ;
#284 = CC_DESIGN_APPROVAL ( #283, ( #151 ) ) ;
#285 = ORIENTED_EDGE ( 'NONE', *, *, #192, .T. ) ;
#286 = CIRCLE ( 'NONE', #223, 10.00000000000000000 ) ;
#287 = ORIENTED_EDGE ( 'NONE', *, *, #246, .T. ) ;
#288 = TOROIDAL_SURFACE ( 'NONE', #242, 10.20000000000000107, 0.2000000000000000111 ) ;
#289 = DATE_AND_TIME ( #193, #239 ) ;
#290 = VERTEX_POINT ( 'NONE', #257 ) ;
#291 = PERSON ( 'NEURÈENÝ', 'NEURÈENÝ', 'NEURÈENÝ', ('NEURÈENÝ'), ('NEURÈENÝ'), ('NEURÈENÝ') ) ;
#292 = CALENDAR_DATE ( 2022, 7, 7 ) ;
#293 = EDGE_LOOP ( 'NONE', ( #273, #135, #194, #156 ) ) ;
#294 = APPLICATION_PROTOCOL_DEFINITION ( 'international standard', 'config_control_design', 1994, #37 ) ;
#295 = ORIENTED_EDGE ( 'NONE', *, *, #53, .F. ) ;
#296 = DIRECTION ( 'NONE',  ( 1.000000000000000000, 0.000000000000000000, 0.000000000000000000 ) ) ;
#297 = VERTEX_POINT ( 'NONE', #142 ) ;
#298 = AXIS2_PLACEMENT_3D ( 'NONE', #48, #241, #146 ) ;
#299 = DIRECTION ( 'NONE',  ( 0.000000000000000000, 0.000000000000000000, 1.000000000000000000 ) ) ;
#300 = DIRECTION ( 'NONE',  ( -1.000000000000000000, 1.224646799147353207E-16, 0.000000000000000000 ) ) ;
#301 = EDGE_CURVE ( 'NONE', #62, #176, #32, .T. ) ;
#302 = DIRECTION ( 'NONE',  ( 1.000000000000000000, 0.000000000000000000, -0.000000000000000000 ) ) ;
#303 = CARTESIAN_POINT ( 'NONE',  ( 0.000000000000000000, 0.000000000000000000, 8.000000000000000000 ) ) ;
#304 = ORGANIZATION ( 'NEURÈENÝ', 'NEURÈENÝ', '' ) ;
#305 = DIRECTION ( 'NONE',  ( 1.000000000000000000, 0.000000000000000000, 0.000000000000000000 ) ) ;
#306 = DIRECTION ( 'NONE',  ( -0.000000000000000000, -0.000000000000000000, -1.000000000000000000 ) ) ;
#307 =( NAMED_UNIT ( * ) PLANE_ANGLE_UNIT ( ) SI_UNIT ( $, .RADIAN. ) );
ENDSEC;
END-ISO-10303-21;
