ISO-10303-21;
HEADER;
FILE_DESCRIPTION (( 'STEP AP203' ),
    '1' );
FILE_NAME ('2004.STEP',
    '2023-02-12T11:50:23',
    ( '' ),
    ( '' ),
    'SwSTEP 2.0',
    'SolidWorks 2019',
    '' );
FILE_SCHEMA (( 'CONFIG_CONTROL_DESIGN' ));
ENDSEC;

DATA;
#1 = DATE_AND_TIME ( #41, #15 ) ;
#2 = DIRECTION ( 'NONE',  ( 0.000000000000000000, 0.000000000000000000, 1.000000000000000000 ) ) ;
#3 = PERSON_AND_ORGANIZATION_ROLE ( 'creator' ) ;
#4 = CARTESIAN_POINT ( 'NONE',  ( 0.000000000000000000, 0.000000000000000000, 0.000000000000000000 ) ) ;
#5 = CIRCLE ( 'NONE', #38, 5.000000000000000000 ) ;
#6 = FACE_OUTER_BOUND ( 'NONE', #248, .T. ) ;
#7 = LINE ( 'NONE', #44, #83 ) ;
#8 = APPROVAL_ROLE ( '' ) ;
#9 = APPROVAL_STATUS ( 'not_yet_approved' ) ;
#10 = AXIS2_PLACEMENT_3D ( 'NONE', #48, #225, #141 ) ;
#11 = APPLICATION_PROTOCOL_DEFINITION ( 'international standard', 'config_control_design', 1994, #88 ) ;
#12 = SECURITY_CLASSIFICATION ( '', '', #81 ) ;
#13 = ORIENTED_EDGE ( 'NONE', *, *, #84, .T. ) ;
#14 = VERTEX_POINT ( 'NONE', #252 ) ;
#15 = LOCAL_TIME ( 12, 50, 23.00000000000000000, #115 ) ;
#16 = VERTEX_POINT ( 'NONE', #198 ) ;
#17 = EDGE_CURVE ( 'NONE', #138, #76, #75, .T. ) ;
#18 = EDGE_CURVE ( 'NONE', #138, #19, #249, .T. ) ;
#19 = VERTEX_POINT ( 'NONE', #215 ) ;
#20 = PERSON_AND_ORGANIZATION ( #150, #71 ) ;
#21 = CARTESIAN_POINT ( 'NONE',  ( 0.000000000000000000, 0.000000000000000000, 100.0000000000000000 ) ) ;
#22 = LOCAL_TIME ( 12, 50, 23.00000000000000000, #90 ) ;
#23 = DIRECTION ( 'NONE',  ( 1.000000000000000000, 0.000000000000000000, 0.000000000000000000 ) ) ;
#24 = FACE_BOUND ( 'NONE', #217, .T. ) ;
#25 = PRODUCT_DEFINITION_SHAPE ( 'NONE', 'NONE',  #211 ) ;
#26 = FACE_OUTER_BOUND ( 'NONE', #175, .T. ) ;
#27 = DIRECTION ( 'NONE',  ( 1.000000000000000000, 0.000000000000000000, -0.000000000000000000 ) ) ;
#28 = APPROVAL_PERSON_ORGANIZATION ( #219, #92, #79 ) ;
#29 = CC_DESIGN_DATE_AND_TIME_ASSIGNMENT ( #238, #57, ( #12 ) ) ;
#30 = PERSON_AND_ORGANIZATION_ROLE ( 'creator' ) ;
#31 = APPROVAL_STATUS ( 'not_yet_approved' ) ;
#32 = ORIENTED_EDGE ( 'NONE', *, *, #129, .T. ) ;
#33 = APPROVAL ( #31, 'NEURÈENÝ' ) ;
#34 = DIRECTION ( 'NONE',  ( -1.000000000000000000, 0.000000000000000000, 0.000000000000000000 ) ) ;
#35 = AXIS2_PLACEMENT_3D ( 'NONE', #21, #100, #101 ) ;
#36 = DIRECTION ( 'NONE',  ( -0.000000000000000000, -0.000000000000000000, -1.000000000000000000 ) ) ;
#37 = APPROVAL ( #9, 'NEURÈENÝ' ) ;
#38 = AXIS2_PLACEMENT_3D ( 'NONE', #125, #65, #180 ) ;
#39 = PERSON_AND_ORGANIZATION ( #150, #71 ) ;
#40 = LINE ( 'NONE', #120, #143 ) ;
#41 = CALENDAR_DATE ( 2023, 12, 2 ) ;
#42 = EDGE_LOOP ( 'NONE', ( #99, #236, #50, #13 ) ) ;
#43 = DIRECTION ( 'NONE',  ( 0.000000000000000000, 0.000000000000000000, 1.000000000000000000 ) ) ;
#44 = CARTESIAN_POINT ( 'NONE',  ( 5.000000000000000000, 6.123233995736766282E-16, 3.000000000000000000 ) ) ;
#45 = DIRECTION ( 'NONE',  ( 0.000000000000000000, 0.000000000000000000, 1.000000000000000000 ) ) ;
#46 = FACE_OUTER_BOUND ( 'NONE', #210, .T. ) ;
#47 = AXIS2_PLACEMENT_3D ( 'NONE', #224, #43, #205 ) ;
#48 = CARTESIAN_POINT ( 'NONE',  ( 0.000000000000000000, 0.000000000000000000, 3.000000000000000000 ) ) ;
#49 = DATE_AND_TIME ( #66, #93 ) ;
#50 = ORIENTED_EDGE ( 'NONE', *, *, #128, .T. ) ;
#51 = CC_DESIGN_APPROVAL ( #92, ( #12 ) ) ;
#52 = CYLINDRICAL_SURFACE ( 'NONE', #203, 5.000000000000000000 ) ;
#53 = CARTESIAN_POINT ( 'NONE',  ( 0.000000000000000000, 0.000000000000000000, 100.0000000000000000 ) ) ;
#54 = EDGE_CURVE ( 'NONE', #139, #14, #40, .T. ) ;
#55 = VERTEX_POINT ( 'NONE', #154 ) ;
#56 = ORIENTED_EDGE ( 'NONE', *, *, #176, .F. ) ;
#57 = DATE_TIME_ROLE ( 'classification_date' ) ;
#58 = ORIENTED_EDGE ( 'NONE', *, *, #135, .T. ) ;
#59 = PLANE ( 'NONE',  #156 ) ;
#60 = APPROVAL_PERSON_ORGANIZATION ( #147, #37, #130 ) ;
#61 = PRODUCT ( '2004', '2004', '', ( #189 ) ) ;
#62 =( LENGTH_UNIT ( ) NAMED_UNIT ( * ) SI_UNIT ( .MILLI., .METRE. ) );
#63 = DIRECTION ( 'NONE',  ( 1.000000000000000000, 0.000000000000000000, -0.000000000000000000 ) ) ;
#64 = ADVANCED_FACE ( 'NONE', ( #250 ), #233, .T. ) ;
#65 = DIRECTION ( 'NONE',  ( 0.000000000000000000, 0.000000000000000000, 1.000000000000000000 ) ) ;
#66 = CALENDAR_DATE ( 2023, 12, 2 ) ;
#67 = CIRCLE ( 'NONE', #214, 2.600000000000000089 ) ;
#68 = APPROVAL_DATE_TIME ( #172, #37 ) ;
#69 = CC_DESIGN_PERSON_AND_ORGANIZATION_ASSIGNMENT ( #229, #148, ( #61 ) ) ;
#70 = FACE_OUTER_BOUND ( 'NONE', #237, .T. ) ;
#71 = ORGANIZATION ( 'NEURÈENÝ', 'NEURÈENÝ', '' ) ;
#72 = ADVANCED_FACE ( 'NONE', ( #70 ), #52, .T. ) ;
#73 = CC_DESIGN_DATE_AND_TIME_ASSIGNMENT ( #49, #127, ( #211 ) ) ;
#74 = CYLINDRICAL_SURFACE ( 'NONE', #208, 2.600000000000000089 ) ;
#75 = LINE ( 'NONE', #97, #235 ) ;
#76 = VERTEX_POINT ( 'NONE', #195 ) ;
#77 = DIRECTION ( 'NONE',  ( 0.000000000000000000, 0.000000000000000000, 1.000000000000000000 ) ) ;
#78 = DIRECTION ( 'NONE',  ( -1.000000000000000000, 0.000000000000000000, 0.000000000000000000 ) ) ;
#79 = APPROVAL_ROLE ( '' ) ;
#80 = CARTESIAN_POINT ( 'NONE',  ( 0.000000000000000000, 0.000000000000000000, 100.0000000000000000 ) ) ;
#81 = SECURITY_CLASSIFICATION_LEVEL ( 'unclassified' ) ;
#82 = ADVANCED_FACE ( 'NONE', ( #251 ), #74, .T. ) ;
#83 = VECTOR ( 'NONE', #144, 1000.000000000000000 ) ;
#84 = EDGE_CURVE ( 'NONE', #16, #76, #160, .T. ) ;
#85 = PLANE ( 'NONE',  #193 ) ;
#86 = UNCERTAINTY_MEASURE_WITH_UNIT (LENGTH_MEASURE( 1.000000000000000082E-05 ), #62, 'distance_accuracy_value', 'NONE');
#87 = LINE ( 'NONE', #124, #107 ) ;
#88 = APPLICATION_CONTEXT ( 'configuration controlled 3d designs of mechanical parts and assemblies' ) ;
#89 = CLOSED_SHELL ( 'NONE', ( #82, #72, #96, #212, #185, #64, #246 ) ) ;
#90 = COORDINATED_UNIVERSAL_TIME_OFFSET ( 1, 0, .AHEAD. ) ;
#91 = AXIS2_PLACEMENT_3D ( 'NONE', #201, #240, #164 ) ;
#92 = APPROVAL ( #239, 'NEURÈENÝ' ) ;
#93 = LOCAL_TIME ( 12, 50, 23.00000000000000000, #110 ) ;
#94 = CARTESIAN_POINT ( 'NONE',  ( 0.000000000000000000, 0.000000000000000000, 0.000000000000000000 ) ) ;
#95 = ORIENTED_EDGE ( 'NONE', *, *, #84, .F. ) ;
#96 = ADVANCED_FACE ( 'NONE', ( #26 ), #200, .T. ) ;
#97 = CARTESIAN_POINT ( 'NONE',  ( 2.600000000000000089, 3.184081677783117698E-16, 100.0000000000000000 ) ) ;
#98 = APPROVAL_PERSON_ORGANIZATION ( #209, #33, #8 ) ;
#99 = ORIENTED_EDGE ( 'NONE', *, *, #17, .F. ) ;
#100 = DIRECTION ( 'NONE',  ( -0.000000000000000000, -0.000000000000000000, -1.000000000000000000 ) ) ;
#101 = DIRECTION ( 'NONE',  ( -1.000000000000000000, 0.000000000000000000, 0.000000000000000000 ) ) ;
#102 = CALENDAR_DATE ( 2023, 12, 2 ) ;
#103 = CARTESIAN_POINT ( 'NONE',  ( -5.000000000000000000, 0.000000000000000000, 3.000000000000000000 ) ) ;
#104 = PERSON_AND_ORGANIZATION_ROLE ( 'design_supplier' ) ;
#105 = FACE_OUTER_BOUND ( 'NONE', #234, .T. ) ;
#106 = CC_DESIGN_PERSON_AND_ORGANIZATION_ASSIGNMENT ( #39, #140, ( #12 ) ) ;
#107 = VECTOR ( 'NONE', #183, 1000.000000000000000 ) ;
#108 = CARTESIAN_POINT ( 'NONE',  ( 0.000000000000000000, 0.000000000000000000, 3.000000000000000000 ) ) ;
#109 = CARTESIAN_POINT ( 'NONE',  ( 5.000000000000000000, 6.123233995736766282E-16, 3.000000000000000000 ) ) ;
#110 = COORDINATED_UNIVERSAL_TIME_OFFSET ( 1, 0, .AHEAD. ) ;
#111 = DIRECTION ( 'NONE',  ( 0.000000000000000000, 0.000000000000000000, 1.000000000000000000 ) ) ;
#112 = EDGE_CURVE ( 'NONE', #19, #138, #67, .T. ) ;
#113 = AXIS2_PLACEMENT_3D ( 'NONE', #122, #77, #174 ) ;
#114 = CIRCLE ( 'NONE', #91, 5.000000000000000000 ) ;
#115 = COORDINATED_UNIVERSAL_TIME_OFFSET ( 1, 0, .AHEAD. ) ;
#116 = ORIENTED_EDGE ( 'NONE', *, *, #204, .T. ) ;
#117 = DIRECTION ( 'NONE',  ( -1.000000000000000000, 0.000000000000000000, 0.000000000000000000 ) ) ;
#118 = AXIS2_PLACEMENT_3D ( 'NONE', #123, #222, #202 ) ;
#119 = VERTEX_POINT ( 'NONE', #109 ) ;
#120 = CARTESIAN_POINT ( 'NONE',  ( -5.000000000000000000, 0.000000000000000000, 3.000000000000000000 ) ) ;
#121 = COORDINATED_UNIVERSAL_TIME_OFFSET ( 1, 0, .AHEAD. ) ;
#122 = CARTESIAN_POINT ( 'NONE',  ( 0.000000000000000000, 0.000000000000000000, 100.0000000000000000 ) ) ;
#123 = CARTESIAN_POINT ( 'NONE',  ( 0.000000000000000000, 0.000000000000000000, 3.000000000000000000 ) ) ;
#124 = CARTESIAN_POINT ( 'NONE',  ( -2.600000000000000089, 0.000000000000000000, 100.0000000000000000 ) ) ;
#125 = CARTESIAN_POINT ( 'NONE',  ( 0.000000000000000000, 0.000000000000000000, 0.000000000000000000 ) ) ;
#126 = DESIGN_CONTEXT ( 'detailed design', #161, 'design' ) ;
#127 = DATE_TIME_ROLE ( 'creation_date' ) ;
#128 = EDGE_CURVE ( 'NONE', #19, #16, #87, .T. ) ;
#129 = EDGE_CURVE ( 'NONE', #76, #16, #245, .T. ) ;
#130 = APPROVAL_ROLE ( '' ) ;
#131 = ORIENTED_EDGE ( 'NONE', *, *, #112, .T. ) ;
#132 = CARTESIAN_POINT ( 'NONE',  ( 0.000000000000000000, 0.000000000000000000, 3.000000000000000000 ) ) ;
#133 = ORIENTED_EDGE ( 'NONE', *, *, #135, .F. ) ;
#134 = ORIENTED_EDGE ( 'NONE', *, *, #204, .F. ) ;
#135 = EDGE_CURVE ( 'NONE', #119, #55, #7, .T. ) ;
#136 = PRODUCT_DEFINITION_FORMATION_WITH_SPECIFIED_SOURCE ( 'LIBOVOLNÝ', '', #61, .NOT_KNOWN. ) ;
#137 = EDGE_CURVE ( 'NONE', #119, #139, #114, .T. ) ;
#138 = VERTEX_POINT ( 'NONE', #243 ) ;
#139 = VERTEX_POINT ( 'NONE', #103 ) ;
#140 = PERSON_AND_ORGANIZATION_ROLE ( 'classification_officer' ) ;
#141 = DIRECTION ( 'NONE',  ( 1.000000000000000000, 0.000000000000000000, 0.000000000000000000 ) ) ;
#142 = DIRECTION ( 'NONE',  ( -0.000000000000000000, -0.000000000000000000, -1.000000000000000000 ) ) ;
#143 = VECTOR ( 'NONE', #197, 1000.000000000000000 ) ;
#144 = DIRECTION ( 'NONE',  ( -0.000000000000000000, -0.000000000000000000, -1.000000000000000000 ) ) ;
#145 = AXIS2_PLACEMENT_3D ( 'NONE', #80, #207, #162 ) ;
#146 = CC_DESIGN_PERSON_AND_ORGANIZATION_ASSIGNMENT ( #20, #104, ( #136 ) ) ;
#147 = PERSON_AND_ORGANIZATION ( #150, #71 ) ;
#148 = PERSON_AND_ORGANIZATION_ROLE ( 'design_owner' ) ;
#149 = ORIENTED_EDGE ( 'NONE', *, *, #137, .T. ) ;
#150 = PERSON ( 'NEURÈENÝ', 'NEURÈENÝ', 'NEURÈENÝ', ('NEURÈENÝ'), ('NEURÈENÝ'), ('NEURÈENÝ') ) ;
#151 = ORIENTED_EDGE ( 'NONE', *, *, #153, .T. ) ;
#152 = ORIENTED_EDGE ( 'NONE', *, *, #18, .T. ) ;
#153 = EDGE_CURVE ( 'NONE', #139, #119, #230, .T. ) ;
#154 = CARTESIAN_POINT ( 'NONE',  ( 5.000000000000000000, 6.123233995736766282E-16, 0.000000000000000000 ) ) ;
#155 = ORIENTED_EDGE ( 'NONE', *, *, #54, .F. ) ;
#156 = AXIS2_PLACEMENT_3D ( 'NONE', #4, #186, #63 ) ;
#157 = PERSON_AND_ORGANIZATION ( #150, #71 ) ;
#158 = ORIENTED_EDGE ( 'NONE', *, *, #137, .F. ) ;
#159 = DIRECTION ( 'NONE',  ( 1.000000000000000000, 0.000000000000000000, 0.000000000000000000 ) ) ;
#160 = CIRCLE ( 'NONE', #10, 2.600000000000000089 ) ;
#161 = APPLICATION_CONTEXT ( 'configuration controlled 3d designs of mechanical parts and assemblies' ) ;
#162 = DIRECTION ( 'NONE',  ( 1.000000000000000000, 0.000000000000000000, -0.000000000000000000 ) ) ;
#163 = APPROVAL_DATE_TIME ( #173, #33 ) ;
#164 = DIRECTION ( 'NONE',  ( 1.000000000000000000, 0.000000000000000000, 0.000000000000000000 ) ) ;
#165 = CARTESIAN_POINT ( 'NONE',  ( 0.000000000000000000, 0.000000000000000000, 100.0000000000000000 ) ) ;
#166 =( NAMED_UNIT ( * ) SI_UNIT ( $, .STERADIAN. ) SOLID_ANGLE_UNIT ( ) );
#167 = CC_DESIGN_APPROVAL ( #37, ( #211 ) ) ;
#168 = CC_DESIGN_PERSON_AND_ORGANIZATION_ASSIGNMENT ( #231, #30, ( #211 ) ) ;
#169 = CALENDAR_DATE ( 2023, 12, 2 ) ;
#170 = AXIS2_PLACEMENT_3D ( 'NONE', #244, #2, #159 ) ;
#171 = LOCAL_TIME ( 12, 50, 23.00000000000000000, #121 ) ;
#172 = DATE_AND_TIME ( #169, #226 ) ;
#173 = DATE_AND_TIME ( #182, #22 ) ;
#174 = DIRECTION ( 'NONE',  ( 1.000000000000000000, 0.000000000000000000, 0.000000000000000000 ) ) ;
#175 = EDGE_LOOP ( 'NONE', ( #133, #255, #177, #116 ) ) ;
#176 = EDGE_CURVE ( 'NONE', #55, #14, #5, .T. ) ;
#177 = ORIENTED_EDGE ( 'NONE', *, *, #54, .T. ) ;
#178 = ORIENTED_EDGE ( 'NONE', *, *, #17, .T. ) ;
#179 = ORIENTED_EDGE ( 'NONE', *, *, #128, .F. ) ;
#180 = DIRECTION ( 'NONE',  ( 1.000000000000000000, 0.000000000000000000, 0.000000000000000000 ) ) ;
#181 = CARTESIAN_POINT ( 'NONE',  ( 0.000000000000000000, 0.000000000000000000, 3.000000000000000000 ) ) ;
#182 = CALENDAR_DATE ( 2023, 12, 2 ) ;
#183 = DIRECTION ( 'NONE',  ( -0.000000000000000000, -0.000000000000000000, -1.000000000000000000 ) ) ;
#184 = CIRCLE ( 'NONE', #47, 5.000000000000000000 ) ;
#185 = ADVANCED_FACE ( 'NONE', ( #46 ), #59, .F. ) ;
#186 = DIRECTION ( 'NONE',  ( 0.000000000000000000, 0.000000000000000000, 1.000000000000000000 ) ) ;
#187 =( NAMED_UNIT ( * ) PLANE_ANGLE_UNIT ( ) SI_UNIT ( $, .RADIAN. ) );
#188 = ADVANCED_BREP_SHAPE_REPRESENTATION ( '2004', ( #194, #206 ), #216 ) ;
#189 = MECHANICAL_CONTEXT ( 'NONE', #88, 'mechanical' ) ;
#190 = DIRECTION ( 'NONE',  ( 1.000000000000000000, 0.000000000000000000, 0.000000000000000000 ) ) ;
#191 = APPLICATION_PROTOCOL_DEFINITION ( 'international standard', 'config_control_design', 1994, #161 ) ;
#192 = CC_DESIGN_APPROVAL ( #33, ( #136 ) ) ;
#193 = AXIS2_PLACEMENT_3D ( 'NONE', #181, #45, #27 ) ;
#194 = MANIFOLD_SOLID_BREP ( 'Pøidat vysunutím3', #89 ) ;
#195 = CARTESIAN_POINT ( 'NONE',  ( 2.600000000000000089, 3.184081677783117698E-16, 3.000000000000000000 ) ) ;
#196 = ORIENTED_EDGE ( 'NONE', *, *, #18, .F. ) ;
#197 = DIRECTION ( 'NONE',  ( -0.000000000000000000, -0.000000000000000000, -1.000000000000000000 ) ) ;
#198 = CARTESIAN_POINT ( 'NONE',  ( -2.600000000000000089, 0.000000000000000000, 3.000000000000000000 ) ) ;
#199 = SHAPE_DEFINITION_REPRESENTATION ( #25, #188 ) ;
#200 = CYLINDRICAL_SURFACE ( 'NONE', #228, 5.000000000000000000 ) ;
#201 = CARTESIAN_POINT ( 'NONE',  ( 0.000000000000000000, 0.000000000000000000, 3.000000000000000000 ) ) ;
#202 = DIRECTION ( 'NONE',  ( 1.000000000000000000, 0.000000000000000000, 0.000000000000000000 ) ) ;
#203 = AXIS2_PLACEMENT_3D ( 'NONE', #132, #213, #34 ) ;
#204 = EDGE_CURVE ( 'NONE', #14, #55, #184, .T. ) ;
#205 = DIRECTION ( 'NONE',  ( 1.000000000000000000, 0.000000000000000000, 0.000000000000000000 ) ) ;
#206 = AXIS2_PLACEMENT_3D ( 'NONE', #94, #111, #190 ) ;
#207 = DIRECTION ( 'NONE',  ( 0.000000000000000000, 0.000000000000000000, 1.000000000000000000 ) ) ;
#208 = AXIS2_PLACEMENT_3D ( 'NONE', #53, #36, #117 ) ;
#209 = PERSON_AND_ORGANIZATION ( #150, #71 ) ;
#210 = EDGE_LOOP ( 'NONE', ( #134, #56 ) ) ;
#211 = PRODUCT_DEFINITION ( 'NEZNÁMÝ', '', #136, #126 ) ;
#212 = ADVANCED_FACE ( 'NONE', ( #24, #105 ), #85, .T. ) ;
#213 = DIRECTION ( 'NONE',  ( -0.000000000000000000, -0.000000000000000000, -1.000000000000000000 ) ) ;
#214 = AXIS2_PLACEMENT_3D ( 'NONE', #165, #223, #23 ) ;
#215 = CARTESIAN_POINT ( 'NONE',  ( -2.600000000000000089, 0.000000000000000000, 100.0000000000000000 ) ) ;
#216 =( GEOMETRIC_REPRESENTATION_CONTEXT ( 3 ) GLOBAL_UNCERTAINTY_ASSIGNED_CONTEXT ( ( #86 ) ) GLOBAL_UNIT_ASSIGNED_CONTEXT ( ( #62, #187, #166 ) ) REPRESENTATION_CONTEXT ( 'NONE', 'WORKASPACE' ) );
#217 = EDGE_LOOP ( 'NONE', ( #95, #232 ) ) ;
#218 = EDGE_LOOP ( 'NONE', ( #196, #178, #32, #179 ) ) ;
#219 = PERSON_AND_ORGANIZATION ( #150, #71 ) ;
#220 = DIRECTION ( 'NONE',  ( -0.000000000000000000, -0.000000000000000000, -1.000000000000000000 ) ) ;
#221 = APPROVAL_DATE_TIME ( #1, #92 ) ;
#222 = DIRECTION ( 'NONE',  ( 0.000000000000000000, 0.000000000000000000, 1.000000000000000000 ) ) ;
#223 = DIRECTION ( 'NONE',  ( 0.000000000000000000, 0.000000000000000000, 1.000000000000000000 ) ) ;
#224 = CARTESIAN_POINT ( 'NONE',  ( 0.000000000000000000, 0.000000000000000000, 0.000000000000000000 ) ) ;
#225 = DIRECTION ( 'NONE',  ( 0.000000000000000000, 0.000000000000000000, 1.000000000000000000 ) ) ;
#226 = LOCAL_TIME ( 12, 50, 23.00000000000000000, #247 ) ;
#227 = PLANE ( 'NONE',  #145 ) ;
#228 = AXIS2_PLACEMENT_3D ( 'NONE', #108, #142, #78 ) ;
#229 = PERSON_AND_ORGANIZATION ( #150, #71 ) ;
#230 = CIRCLE ( 'NONE', #118, 5.000000000000000000 ) ;
#231 = PERSON_AND_ORGANIZATION ( #150, #71 ) ;
#232 = ORIENTED_EDGE ( 'NONE', *, *, #129, .F. ) ;
#233 = CYLINDRICAL_SURFACE ( 'NONE', #35, 2.600000000000000089 ) ;
#234 = EDGE_LOOP ( 'NONE', ( #151, #149 ) ) ;
#235 = VECTOR ( 'NONE', #220, 1000.000000000000000 ) ;
#236 = ORIENTED_EDGE ( 'NONE', *, *, #112, .F. ) ;
#237 = EDGE_LOOP ( 'NONE', ( #158, #58, #253, #155 ) ) ;
#238 = DATE_AND_TIME ( #102, #171 ) ;
#239 = APPROVAL_STATUS ( 'not_yet_approved' ) ;
#240 = DIRECTION ( 'NONE',  ( 0.000000000000000000, 0.000000000000000000, 1.000000000000000000 ) ) ;
#241 = CC_DESIGN_PERSON_AND_ORGANIZATION_ASSIGNMENT ( #157, #3, ( #136 ) ) ;
#242 = CC_DESIGN_SECURITY_CLASSIFICATION ( #12, ( #136 ) ) ;
#243 = CARTESIAN_POINT ( 'NONE',  ( 2.600000000000000089, 3.184081677783117698E-16, 100.0000000000000000 ) ) ;
#244 = CARTESIAN_POINT ( 'NONE',  ( 0.000000000000000000, 0.000000000000000000, 3.000000000000000000 ) ) ;
#245 = CIRCLE ( 'NONE', #170, 2.600000000000000089 ) ;
#246 = ADVANCED_FACE ( 'NONE', ( #6 ), #227, .T. ) ;
#247 = COORDINATED_UNIVERSAL_TIME_OFFSET ( 1, 0, .AHEAD. ) ;
#248 = EDGE_LOOP ( 'NONE', ( #131, #152 ) ) ;
#249 = CIRCLE ( 'NONE', #113, 2.600000000000000089 ) ;
#250 = FACE_OUTER_BOUND ( 'NONE', #42, .T. ) ;
#251 = FACE_OUTER_BOUND ( 'NONE', #218, .T. ) ;
#252 = CARTESIAN_POINT ( 'NONE',  ( -5.000000000000000000, 0.000000000000000000, 0.000000000000000000 ) ) ;
#253 = ORIENTED_EDGE ( 'NONE', *, *, #176, .T. ) ;
#254 = PRODUCT_RELATED_PRODUCT_CATEGORY ( 'detail', '', ( #61 ) ) ;
#255 = ORIENTED_EDGE ( 'NONE', *, *, #153, .F. ) ;
ENDSEC;
END-ISO-10303-21;
