ISO-10303-21;
HEADER;
FILE_DESCRIPTION (( 'STEP AP203' ),
    '1' );
FILE_NAME ('5388.STEP',
    '2022-07-07T12:29:14',
    ( '' ),
    ( '' ),
    'SwSTEP 2.0',
    'SolidWorks 2019',
    '' );
FILE_SCHEMA (( 'CONFIG_CONTROL_DESIGN' ));
ENDSEC;

DATA;
#1 = ORIENTED_EDGE ( 'NONE', *, *, #294, .F. ) ;
#2 = CARTESIAN_POINT ( 'NONE',  ( -7.000000000000000000, 0.000000000000000000, 0.000000000000000000 ) ) ;
#3 = CARTESIAN_POINT ( 'NONE',  ( 0.000000000000000000, 0.000000000000000000, 5.199999999999982414 ) ) ;
#4 = CARTESIAN_POINT ( 'NONE',  ( 0.000000000000000000, 0.000000000000000000, 505.0000000000000000 ) ) ;
#5 = ADVANCED_FACE ( 'NONE', ( #71 ), #260, .T. ) ;
#6 = CIRCLE ( 'NONE', #85, 7.000000000000000000 ) ;
#7 = APPLICATION_CONTEXT ( 'configuration controlled 3d designs of mechanical parts and assemblies' ) ;
#8 = DATE_TIME_ROLE ( 'classification_date' ) ;
#9 = PERSON_AND_ORGANIZATION_ROLE ( 'design_owner' ) ;
#10 = AXIS2_PLACEMENT_3D ( 'NONE', #76, #67, #171 ) ;
#11 = APPROVAL_ROLE ( '' ) ;
#12 = ADVANCED_FACE ( 'NONE', ( #216 ), #119, .T. ) ;
#13 = CIRCLE ( 'NONE', #110, 7.000000000000000000 ) ;
#14 = ORIENTED_EDGE ( 'NONE', *, *, #132, .T. ) ;
#15 = EDGE_LOOP ( 'NONE', ( #290, #120 ) ) ;
#16 = ADVANCED_FACE ( 'NONE', ( #19 ), #227, .F. ) ;
#17 = DIRECTION ( 'NONE',  ( 1.000000000000000000, 0.000000000000000000, 0.000000000000000000 ) ) ;
#18 = FACE_OUTER_BOUND ( 'NONE', #15, .T. ) ;
#19 = FACE_OUTER_BOUND ( 'NONE', #168, .T. ) ;
#20 = EDGE_LOOP ( 'NONE', ( #198, #197, #174, #91 ) ) ;
#21 =( GEOMETRIC_REPRESENTATION_CONTEXT ( 3 ) GLOBAL_UNCERTAINTY_ASSIGNED_CONTEXT ( ( #279 ) ) GLOBAL_UNIT_ASSIGNED_CONTEXT ( ( #203, #224, #249 ) ) REPRESENTATION_CONTEXT ( 'NONE', 'WORKASPACE' ) );
#22 = ORIENTED_EDGE ( 'NONE', *, *, #206, .T. ) ;
#23 = APPROVAL ( #226, 'NEURÈENÝ' ) ;
#24 = DIRECTION ( 'NONE',  ( -0.000000000000000000, -0.000000000000000000, -1.000000000000000000 ) ) ;
#25 = FACE_OUTER_BOUND ( 'NONE', #20, .T. ) ;
#26 = DIRECTION ( 'NONE',  ( 0.000000000000000000, 0.000000000000000000, 1.000000000000000000 ) ) ;
#27 = DIRECTION ( 'NONE',  ( 1.000000000000000000, 0.000000000000000000, 0.000000000000000000 ) ) ;
#28 = ADVANCED_FACE ( 'NONE', ( #45 ), #263, .F. ) ;
#29 = CARTESIAN_POINT ( 'NONE',  ( 0.000000000000000000, 0.000000000000000000, 5.000000000000000000 ) ) ;
#30 = CARTESIAN_POINT ( 'NONE',  ( 4.500000000000000000, 5.510910596163088569E-16, 505.0000000000000000 ) ) ;
#31 = CARTESIAN_POINT ( 'NONE',  ( 0.000000000000000000, 0.000000000000000000, 0.000000000000000000 ) ) ;
#32 = APPLICATION_PROTOCOL_DEFINITION ( 'international standard', 'config_control_design', 1994, #270 ) ;
#33 = PERSON_AND_ORGANIZATION ( #92, #204 ) ;
#34 = ORIENTED_EDGE ( 'NONE', *, *, #138, .T. ) ;
#35 = ORIENTED_EDGE ( 'NONE', *, *, #58, .F. ) ;
#36 = EDGE_CURVE ( 'NONE', #264, #149, #306, .T. ) ;
#37 = CARTESIAN_POINT ( 'NONE',  ( 0.000000000000000000, 0.000000000000000000, 5.000000000000000000 ) ) ;
#38 = ORIENTED_EDGE ( 'NONE', *, *, #82, .F. ) ;
#39 = CARTESIAN_POINT ( 'NONE',  ( 0.000000000000000000, 0.000000000000000000, 5.199999999999982414 ) ) ;
#40 = ORIENTED_EDGE ( 'NONE', *, *, #238, .T. ) ;
#41 = DIRECTION ( 'NONE',  ( -1.000000000000000000, 0.000000000000000000, 0.000000000000000000 ) ) ;
#42 = EDGE_CURVE ( 'NONE', #43, #149, #140, .T. ) ;
#43 = VERTEX_POINT ( 'NONE', #73 ) ;
#44 = AXIS2_PLACEMENT_3D ( 'NONE', #170, #230, #295 ) ;
#45 = FACE_OUTER_BOUND ( 'NONE', #287, .T. ) ;
#46 = DIRECTION ( 'NONE',  ( 1.000000000000000000, 0.000000000000000000, -0.000000000000000000 ) ) ;
#47 = EDGE_CURVE ( 'NONE', #153, #65, #103, .T. ) ;
#48 = CARTESIAN_POINT ( 'NONE',  ( -4.500000000000000000, 0.000000000000000000, 505.0000000000000000 ) ) ;
#49 = DIRECTION ( 'NONE',  ( 1.000000000000000000, 0.000000000000000000, 0.000000000000000000 ) ) ;
#50 = DIRECTION ( 'NONE',  ( 1.000000000000000000, 0.000000000000000000, -0.000000000000000000 ) ) ;
#51 = AXIS2_PLACEMENT_3D ( 'NONE', #37, #93, #41 ) ;
#52 = APPROVAL_ROLE ( '' ) ;
#53 = APPROVAL_DATE_TIME ( #56, #258 ) ;
#54 = CALENDAR_DATE ( 2022, 7, 7 ) ;
#55 = CC_DESIGN_APPROVAL ( #258, ( #77 ) ) ;
#56 = DATE_AND_TIME ( #276, #288 ) ;
#57 = PERSON_AND_ORGANIZATION_ROLE ( 'classification_officer' ) ;
#58 = EDGE_CURVE ( 'NONE', #264, #63, #13, .T. ) ;
#59 = EDGE_LOOP ( 'NONE', ( #98, #35, #214, #14 ) ) ;
#60 = VERTEX_POINT ( 'NONE', #101 ) ;
#61 = APPROVAL_PERSON_ORGANIZATION ( #185, #258, #208 ) ;
#62 = DESIGN_CONTEXT ( 'detailed design', #7, 'design' ) ;
#63 = VERTEX_POINT ( 'NONE', #235 ) ;
#64 = PLANE ( 'NONE',  #86 ) ;
#65 = VERTEX_POINT ( 'NONE', #173 ) ;
#66 = CIRCLE ( 'NONE', #262, 7.000000000000000000 ) ;
#67 = DIRECTION ( 'NONE',  ( 1.224646799147353207E-16, 1.000000000000000000, -0.000000000000000000 ) ) ;
#68 = DIRECTION ( 'NONE',  ( 0.000000000000000000, 0.000000000000000000, 1.000000000000000000 ) ) ;
#69 = EDGE_CURVE ( 'NONE', #89, #165, #147, .T. ) ;
#70 = CARTESIAN_POINT ( 'NONE',  ( 0.000000000000000000, 0.000000000000000000, 5.000000000000000000 ) ) ;
#71 = FACE_OUTER_BOUND ( 'NONE', #142, .T. ) ;
#72 = EDGE_CURVE ( 'NONE', #63, #264, #6, .T. ) ;
#73 = CARTESIAN_POINT ( 'NONE',  ( 7.000000000000000000, 8.572527594031473190E-16, 0.000000000000000000 ) ) ;
#74 = LINE ( 'NONE', #241, #114 ) ;
#75 = DIRECTION ( 'NONE',  ( 1.000000000000000000, 0.000000000000000000, 0.000000000000000000 ) ) ;
#76 = CARTESIAN_POINT ( 'NONE',  ( -4.699999999999999289, 5.755839955992558669E-16, 5.199999999999982414 ) ) ;
#77 = PRODUCT_DEFINITION_FORMATION_WITH_SPECIFIED_SOURCE ( 'LIBOVOLNÝ', '', #245, .NOT_KNOWN. ) ;
#78 = APPROVAL_STATUS ( 'not_yet_approved' ) ;
#79 = CC_DESIGN_PERSON_AND_ORGANIZATION_ASSIGNMENT ( #131, #9, ( #245 ) ) ;
#80 = DATE_AND_TIME ( #182, #181 ) ;
#81 = DATE_TIME_ROLE ( 'creation_date' ) ;
#82 = EDGE_CURVE ( 'NONE', #65, #153, #112, .T. ) ;
#83 = CALENDAR_DATE ( 2022, 7, 7 ) ;
#84 = ORIENTED_EDGE ( 'NONE', *, *, #82, .T. ) ;
#85 = AXIS2_PLACEMENT_3D ( 'NONE', #29, #266, #49 ) ;
#86 = AXIS2_PLACEMENT_3D ( 'NONE', #194, #200, #50 ) ;
#87 = ORIENTED_EDGE ( 'NONE', *, *, #188, .F. ) ;
#88 = EDGE_CURVE ( 'NONE', #60, #178, #125, .T. ) ;
#89 = VERTEX_POINT ( 'NONE', #265 ) ;
#90 = DIRECTION ( 'NONE',  ( -0.000000000000000000, -0.000000000000000000, -1.000000000000000000 ) ) ;
#91 = ORIENTED_EDGE ( 'NONE', *, *, #36, .F. ) ;
#92 = PERSON ( 'NEURÈENÝ', 'NEURÈENÝ', 'NEURÈENÝ', ('NEURÈENÝ'), ('NEURÈENÝ'), ('NEURÈENÝ') ) ;
#93 = DIRECTION ( 'NONE',  ( -0.000000000000000000, -0.000000000000000000, -1.000000000000000000 ) ) ;
#94 = CARTESIAN_POINT ( 'NONE',  ( 0.000000000000000000, 0.000000000000000000, 0.000000000000000000 ) ) ;
#95 = AXIS2_PLACEMENT_3D ( 'NONE', #100, #257, #145 ) ;
#96 = CARTESIAN_POINT ( 'NONE',  ( -7.000000000000000000, 0.000000000000000000, 5.000000000000000000 ) ) ;
#97 = ORIENTED_EDGE ( 'NONE', *, *, #132, .F. ) ;
#98 = ORIENTED_EDGE ( 'NONE', *, *, #247, .F. ) ;
#99 = CC_DESIGN_APPROVAL ( #304, ( #166 ) ) ;
#100 = CARTESIAN_POINT ( 'NONE',  ( 4.699999999999999289, 0.000000000000000000, 5.199999999999982414 ) ) ;
#101 = CARTESIAN_POINT ( 'NONE',  ( -4.699999999999999289, 5.755839955992558669E-16, 4.999999999999991118 ) ) ;
#102 = DIRECTION ( 'NONE',  ( 0.000000000000000000, 0.000000000000000000, 1.000000000000000000 ) ) ;
#103 = CIRCLE ( 'NONE', #158, 4.500000000000000000 ) ;
#104 = DIRECTION ( 'NONE',  ( 0.000000000000000000, 0.000000000000000000, 1.000000000000000000 ) ) ;
#105 = ADVANCED_FACE ( 'NONE', ( #209 ), #255, .T. ) ;
#106 = DIRECTION ( 'NONE',  ( 0.000000000000000000, 0.000000000000000000, 1.000000000000000000 ) ) ;
#107 = CC_DESIGN_SECURITY_CLASSIFICATION ( #275, ( #77 ) ) ;
#108 = ADVANCED_FACE ( 'NONE', ( #123, #18 ), #64, .T. ) ;
#109 = APPROVAL_PERSON_ORGANIZATION ( #163, #304, #52 ) ;
#110 = AXIS2_PLACEMENT_3D ( 'NONE', #70, #172, #124 ) ;
#111 = CLOSED_SHELL ( 'NONE', ( #16, #105, #189, #122, #108, #28, #5, #12, #152 ) ) ;
#112 = CIRCLE ( 'NONE', #192, 4.500000000000000000 ) ;
#113 = AXIS2_PLACEMENT_3D ( 'NONE', #117, #291, #156 ) ;
#114 = VECTOR ( 'NONE', #126, 1000.000000000000000 ) ;
#115 = ORIENTED_EDGE ( 'NONE', *, *, #294, .T. ) ;
#116 = CARTESIAN_POINT ( 'NONE',  ( 0.000000000000000000, 0.000000000000000000, 5.000000000000000000 ) ) ;
#117 = CARTESIAN_POINT ( 'NONE',  ( 0.000000000000000000, 0.000000000000000000, 5.000000000000000000 ) ) ;
#118 = DIRECTION ( 'NONE',  ( 1.000000000000000000, 0.000000000000000000, -0.000000000000000000 ) ) ;
#119 = PLANE ( 'NONE',  #159 ) ;
#120 = ORIENTED_EDGE ( 'NONE', *, *, #72, .T. ) ;
#121 = ORIENTED_EDGE ( 'NONE', *, *, #206, .F. ) ;
#122 = ADVANCED_FACE ( 'NONE', ( #303 ), #259, .T. ) ;
#123 = FACE_BOUND ( 'NONE', #187, .T. ) ;
#124 = DIRECTION ( 'NONE',  ( 1.000000000000000000, 0.000000000000000000, 0.000000000000000000 ) ) ;
#125 = CIRCLE ( 'NONE', #253, 4.699999999999999289 ) ;
#126 = DIRECTION ( 'NONE',  ( -0.000000000000000000, -0.000000000000000000, -1.000000000000000000 ) ) ;
#127 = DIRECTION ( 'NONE',  ( 1.000000000000000000, 0.000000000000000000, 0.000000000000000000 ) ) ;
#128 = CARTESIAN_POINT ( 'NONE',  ( 4.500000000000000000, 5.510910596163088569E-16, 5.199999999999982414 ) ) ;
#129 = PERSON_AND_ORGANIZATION_ROLE ( 'design_supplier' ) ;
#130 = TOROIDAL_SURFACE ( 'NONE', #136, 4.699999999999999289, 0.2000000000000000111 ) ;
#131 = PERSON_AND_ORGANIZATION ( #92, #204 ) ;
#132 = EDGE_CURVE ( 'NONE', #149, #43, #66, .T. ) ;
#133 = CALENDAR_DATE ( 2022, 7, 7 ) ;
#134 = EDGE_LOOP ( 'NONE', ( #210, #232, #228, #300 ) ) ;
#135 = PERSON_AND_ORGANIZATION ( #92, #204 ) ;
#136 = AXIS2_PLACEMENT_3D ( 'NONE', #39, #104, #17 ) ;
#137 = AXIS2_PLACEMENT_3D ( 'NONE', #4, #102, #202 ) ;
#138 = EDGE_CURVE ( 'NONE', #178, #60, #193, .T. ) ;
#139 = ORIENTED_EDGE ( 'NONE', *, *, #144, .F. ) ;
#140 = CIRCLE ( 'NONE', #141, 7.000000000000000000 ) ;
#141 = AXIS2_PLACEMENT_3D ( 'NONE', #94, #307, #196 ) ;
#142 = EDGE_LOOP ( 'NONE', ( #87, #1, #40, #84 ) ) ;
#143 = ORIENTED_EDGE ( 'NONE', *, *, #138, .F. ) ;
#144 = EDGE_CURVE ( 'NONE', #153, #178, #225, .T. ) ;
#145 = DIRECTION ( 'NONE',  ( 0.000000000000000000, 0.000000000000000000, -1.000000000000000000 ) ) ;
#146 = CARTESIAN_POINT ( 'NONE',  ( 0.000000000000000000, 0.000000000000000000, 505.0000000000000000 ) ) ;
#147 = CIRCLE ( 'NONE', #278, 4.500000000000000000 ) ;
#148 = DIRECTION ( 'NONE',  ( 0.000000000000000000, 0.000000000000000000, 1.000000000000000000 ) ) ;
#149 = VERTEX_POINT ( 'NONE', #2 ) ;
#150 = LOCAL_TIME ( 14, 29, 14.00000000000000000, #297 ) ;
#151 = DIRECTION ( 'NONE',  ( -1.000000000000000000, 0.000000000000000000, 0.000000000000000000 ) ) ;
#152 = ADVANCED_FACE ( 'NONE', ( #176 ), #130, .F. ) ;
#153 = VERTEX_POINT ( 'NONE', #128 ) ;
#154 = CARTESIAN_POINT ( 'NONE',  ( -4.500000000000000000, 0.000000000000000000, 505.0000000000000000 ) ) ;
#155 = DIRECTION ( 'NONE',  ( 0.000000000000000000, 0.000000000000000000, 1.000000000000000000 ) ) ;
#156 = DIRECTION ( 'NONE',  ( -1.000000000000000000, 0.000000000000000000, 0.000000000000000000 ) ) ;
#157 = APPROVAL_DATE_TIME ( #268, #304 ) ;
#158 = AXIS2_PLACEMENT_3D ( 'NONE', #3, #26, #285 ) ;
#159 = AXIS2_PLACEMENT_3D ( 'NONE', #146, #68, #46 ) ;
#160 = PERSON_AND_ORGANIZATION ( #92, #204 ) ;
#161 = CIRCLE ( 'NONE', #10, 0.1999999999999996503 ) ;
#162 = SHAPE_DEFINITION_REPRESENTATION ( #180, #220 ) ;
#163 = PERSON_AND_ORGANIZATION ( #92, #204 ) ;
#164 = DATE_AND_TIME ( #54, #254 ) ;
#165 = VERTEX_POINT ( 'NONE', #48 ) ;
#166 = PRODUCT_DEFINITION ( 'NEZNÁMÝ', '', #77, #62 ) ;
#167 = ORIENTED_EDGE ( 'NONE', *, *, #47, .F. ) ;
#168 = EDGE_LOOP ( 'NONE', ( #38, #22, #143, #139 ) ) ;
#169 = CC_DESIGN_PERSON_AND_ORGANIZATION_ASSIGNMENT ( #160, #129, ( #77 ) ) ;
#170 = CARTESIAN_POINT ( 'NONE',  ( 0.000000000000000000, 0.000000000000000000, 505.0000000000000000 ) ) ;
#171 = DIRECTION ( 'NONE',  ( -1.000000000000000000, 1.224646799147353454E-16, 0.000000000000000000 ) ) ;
#172 = DIRECTION ( 'NONE',  ( 0.000000000000000000, 0.000000000000000000, 1.000000000000000000 ) ) ;
#173 = CARTESIAN_POINT ( 'NONE',  ( -4.500000000000000000, 0.000000000000000000, 5.199999999999982414 ) ) ;
#174 = ORIENTED_EDGE ( 'NONE', *, *, #42, .T. ) ;
#175 = DIRECTION ( 'NONE',  ( 0.000000000000000000, 0.000000000000000000, 1.000000000000000000 ) ) ;
#176 = FACE_OUTER_BOUND ( 'NONE', #252, .T. ) ;
#177 = AXIS2_PLACEMENT_3D ( 'NONE', #236, #148, #75 ) ;
#178 = VERTEX_POINT ( 'NONE', #267 ) ;
#179 = CARTESIAN_POINT ( 'NONE',  ( 0.000000000000000000, 0.000000000000000000, 0.000000000000000000 ) ) ;
#180 = PRODUCT_DEFINITION_SHAPE ( 'NONE', 'NONE',  #166 ) ;
#181 = LOCAL_TIME ( 14, 29, 14.00000000000000000, #301 ) ;
#182 = CALENDAR_DATE ( 2022, 7, 7 ) ;
#183 = COORDINATED_UNIVERSAL_TIME_OFFSET ( 1, 0, .AHEAD. ) ;
#184 = APPROVAL_DATE_TIME ( #80, #23 ) ;
#185 = PERSON_AND_ORGANIZATION ( #92, #204 ) ;
#186 = PERSON_AND_ORGANIZATION ( #92, #204 ) ;
#187 = EDGE_LOOP ( 'NONE', ( #34, #239 ) ) ;
#188 = EDGE_CURVE ( 'NONE', #89, #153, #212, .T. ) ;
#189 = ADVANCED_FACE ( 'NONE', ( #25 ), #222, .T. ) ;
#190 = DIRECTION ( 'NONE',  ( 0.000000000000000000, 0.000000000000000000, 1.000000000000000000 ) ) ;
#191 = ORIENTED_EDGE ( 'NONE', *, *, #88, .F. ) ;
#192 = AXIS2_PLACEMENT_3D ( 'NONE', #242, #155, #282 ) ;
#193 = CIRCLE ( 'NONE', #274, 4.699999999999999289 ) ;
#194 = CARTESIAN_POINT ( 'NONE',  ( 0.000000000000000000, 0.000000000000000000, 5.000000000000000000 ) ) ;
#195 = DIRECTION ( 'NONE',  ( -0.000000000000000000, -0.000000000000000000, -1.000000000000000000 ) ) ;
#196 = DIRECTION ( 'NONE',  ( 1.000000000000000000, 0.000000000000000000, 0.000000000000000000 ) ) ;
#197 = ORIENTED_EDGE ( 'NONE', *, *, #247, .T. ) ;
#198 = ORIENTED_EDGE ( 'NONE', *, *, #72, .F. ) ;
#199 = VECTOR ( 'NONE', #217, 1000.000000000000000 ) ;
#200 = DIRECTION ( 'NONE',  ( 0.000000000000000000, 0.000000000000000000, 1.000000000000000000 ) ) ;
#201 = CARTESIAN_POINT ( 'NONE',  ( 0.000000000000000000, 0.000000000000000000, 505.0000000000000000 ) ) ;
#202 = DIRECTION ( 'NONE',  ( 1.000000000000000000, 0.000000000000000000, 0.000000000000000000 ) ) ;
#203 =( LENGTH_UNIT ( ) NAMED_UNIT ( * ) SI_UNIT ( .MILLI., .METRE. ) );
#204 = ORGANIZATION ( 'NEURÈENÝ', 'NEURÈENÝ', '' ) ;
#205 = MECHANICAL_CONTEXT ( 'NONE', #270, 'mechanical' ) ;
#206 = EDGE_CURVE ( 'NONE', #65, #60, #161, .T. ) ;
#207 = APPLICATION_PROTOCOL_DEFINITION ( 'international standard', 'config_control_design', 1994, #7 ) ;
#208 = APPROVAL_ROLE ( '' ) ;
#209 = FACE_OUTER_BOUND ( 'NONE', #134, .T. ) ;
#210 = ORIENTED_EDGE ( 'NONE', *, *, #69, .F. ) ;
#211 = AXIS2_PLACEMENT_3D ( 'NONE', #237, #175, #118 ) ;
#212 = LINE ( 'NONE', #30, #302 ) ;
#213 = AXIS2_PLACEMENT_3D ( 'NONE', #31, #106, #248 ) ;
#214 = ORIENTED_EDGE ( 'NONE', *, *, #36, .T. ) ;
#215 = EDGE_LOOP ( 'NONE', ( #115, #286 ) ) ;
#216 = FACE_OUTER_BOUND ( 'NONE', #215, .T. ) ;
#217 = DIRECTION ( 'NONE',  ( -0.000000000000000000, -0.000000000000000000, -1.000000000000000000 ) ) ;
#218 = CC_DESIGN_PERSON_AND_ORGANIZATION_ASSIGNMENT ( #186, #271, ( #77 ) ) ;
#219 = ORIENTED_EDGE ( 'NONE', *, *, #144, .T. ) ;
#220 = ADVANCED_BREP_SHAPE_REPRESENTATION ( '5388', ( #240, #213 ), #21 ) ;
#221 = CARTESIAN_POINT ( 'NONE',  ( -7.000000000000000000, 0.000000000000000000, 5.000000000000000000 ) ) ;
#222 = CYLINDRICAL_SURFACE ( 'NONE', #51, 7.000000000000000000 ) ;
#223 = PERSON_AND_ORGANIZATION ( #92, #204 ) ;
#224 =( NAMED_UNIT ( * ) PLANE_ANGLE_UNIT ( ) SI_UNIT ( $, .RADIAN. ) );
#225 = CIRCLE ( 'NONE', #95, 0.1999999999999996503 ) ;
#226 = APPROVAL_STATUS ( 'not_yet_approved' ) ;
#227 = TOROIDAL_SURFACE ( 'NONE', #177, 4.699999999999999289, 0.2000000000000000111 ) ;
#228 = ORIENTED_EDGE ( 'NONE', *, *, #47, .T. ) ;
#229 = APPROVAL_PERSON_ORGANIZATION ( #135, #23, #11 ) ;
#230 = DIRECTION ( 'NONE',  ( -0.000000000000000000, -0.000000000000000000, -1.000000000000000000 ) ) ;
#231 = DIRECTION ( 'NONE',  ( 1.000000000000000000, 0.000000000000000000, 0.000000000000000000 ) ) ;
#232 = ORIENTED_EDGE ( 'NONE', *, *, #188, .T. ) ;
#233 = LINE ( 'NONE', #154, #199 ) ;
#234 = CC_DESIGN_DATE_AND_TIME_ASSIGNMENT ( #164, #8, ( #275 ) ) ;
#235 = CARTESIAN_POINT ( 'NONE',  ( 7.000000000000000000, 8.572527594031473190E-16, 5.000000000000000000 ) ) ;
#236 = CARTESIAN_POINT ( 'NONE',  ( 0.000000000000000000, 0.000000000000000000, 5.199999999999982414 ) ) ;
#237 = CARTESIAN_POINT ( 'NONE',  ( 0.000000000000000000, 0.000000000000000000, 0.000000000000000000 ) ) ;
#238 = EDGE_CURVE ( 'NONE', #165, #65, #233, .T. ) ;
#239 = ORIENTED_EDGE ( 'NONE', *, *, #88, .T. ) ;
#240 = MANIFOLD_SOLID_BREP ( 'Zaoblit1', #111 ) ;
#241 = CARTESIAN_POINT ( 'NONE',  ( 7.000000000000000000, 8.572527594031473190E-16, 5.000000000000000000 ) ) ;
#242 = CARTESIAN_POINT ( 'NONE',  ( 0.000000000000000000, 0.000000000000000000, 5.199999999999982414 ) ) ;
#243 = CIRCLE ( 'NONE', #137, 4.500000000000000000 ) ;
#244 = CARTESIAN_POINT ( 'NONE',  ( 0.000000000000000000, 0.000000000000000000, 5.000000000000000000 ) ) ;
#245 = PRODUCT ( '5388', '5388', '', ( #205 ) ) ;
#246 = COORDINATED_UNIVERSAL_TIME_OFFSET ( 1, 0, .AHEAD. ) ;
#247 = EDGE_CURVE ( 'NONE', #63, #43, #74, .T. ) ;
#248 = DIRECTION ( 'NONE',  ( 1.000000000000000000, 0.000000000000000000, 0.000000000000000000 ) ) ;
#249 =( NAMED_UNIT ( * ) SI_UNIT ( $, .STERADIAN. ) SOLID_ANGLE_UNIT ( ) );
#250 = APPROVAL_STATUS ( 'not_yet_approved' ) ;
#251 = CC_DESIGN_PERSON_AND_ORGANIZATION_ASSIGNMENT ( #33, #296, ( #166 ) ) ;
#252 = EDGE_LOOP ( 'NONE', ( #121, #167, #219, #191 ) ) ;
#253 = AXIS2_PLACEMENT_3D ( 'NONE', #116, #90, #231 ) ;
#254 = LOCAL_TIME ( 14, 29, 14.00000000000000000, #246 ) ;
#255 = CYLINDRICAL_SURFACE ( 'NONE', #44, 4.500000000000000000 ) ;
#256 = CC_DESIGN_APPROVAL ( #23, ( #275 ) ) ;
#257 = DIRECTION ( 'NONE',  ( 0.000000000000000000, -1.000000000000000000, 0.000000000000000000 ) ) ;
#258 = APPROVAL ( #78, 'NEURÈENÝ' ) ;
#259 = CYLINDRICAL_SURFACE ( 'NONE', #113, 7.000000000000000000 ) ;
#260 = CYLINDRICAL_SURFACE ( 'NONE', #281, 4.500000000000000000 ) ;
#261 = DIRECTION ( 'NONE',  ( 0.000000000000000000, 0.000000000000000000, 1.000000000000000000 ) ) ;
#262 = AXIS2_PLACEMENT_3D ( 'NONE', #179, #190, #293 ) ;
#263 = PLANE ( 'NONE',  #211 ) ;
#264 = VERTEX_POINT ( 'NONE', #221 ) ;
#265 = CARTESIAN_POINT ( 'NONE',  ( 4.500000000000000000, 5.510910596163088569E-16, 505.0000000000000000 ) ) ;
#266 = DIRECTION ( 'NONE',  ( 0.000000000000000000, 0.000000000000000000, 1.000000000000000000 ) ) ;
#267 = CARTESIAN_POINT ( 'NONE',  ( 4.699999999999999289, 0.000000000000000000, 4.999999999999991118 ) ) ;
#268 = DATE_AND_TIME ( #133, #150 ) ;
#269 = CC_DESIGN_DATE_AND_TIME_ASSIGNMENT ( #273, #81, ( #166 ) ) ;
#270 = APPLICATION_CONTEXT ( 'configuration controlled 3d designs of mechanical parts and assemblies' ) ;
#271 = PERSON_AND_ORGANIZATION_ROLE ( 'creator' ) ;
#272 = VECTOR ( 'NONE', #24, 1000.000000000000000 ) ;
#273 = DATE_AND_TIME ( #83, #298 ) ;
#274 = AXIS2_PLACEMENT_3D ( 'NONE', #244, #284, #27 ) ;
#275 = SECURITY_CLASSIFICATION ( '', '', #277 ) ;
#276 = CALENDAR_DATE ( 2022, 7, 7 ) ;
#277 = SECURITY_CLASSIFICATION_LEVEL ( 'unclassified' ) ;
#278 = AXIS2_PLACEMENT_3D ( 'NONE', #201, #261, #127 ) ;
#279 = UNCERTAINTY_MEASURE_WITH_UNIT (LENGTH_MEASURE( 1.000000000000000082E-05 ), #203, 'distance_accuracy_value', 'NONE');
#280 = PRODUCT_RELATED_PRODUCT_CATEGORY ( 'detail', '', ( #245 ) ) ;
#281 = AXIS2_PLACEMENT_3D ( 'NONE', #292, #195, #151 ) ;
#282 = DIRECTION ( 'NONE',  ( 1.000000000000000000, 0.000000000000000000, 0.000000000000000000 ) ) ;
#283 = ORIENTED_EDGE ( 'NONE', *, *, #42, .F. ) ;
#284 = DIRECTION ( 'NONE',  ( -0.000000000000000000, -0.000000000000000000, -1.000000000000000000 ) ) ;
#285 = DIRECTION ( 'NONE',  ( 1.000000000000000000, 0.000000000000000000, 0.000000000000000000 ) ) ;
#286 = ORIENTED_EDGE ( 'NONE', *, *, #69, .T. ) ;
#287 = EDGE_LOOP ( 'NONE', ( #97, #283 ) ) ;
#288 = LOCAL_TIME ( 14, 29, 14.00000000000000000, #183 ) ;
#289 = CC_DESIGN_PERSON_AND_ORGANIZATION_ASSIGNMENT ( #223, #57, ( #275 ) ) ;
#290 = ORIENTED_EDGE ( 'NONE', *, *, #58, .T. ) ;
#291 = DIRECTION ( 'NONE',  ( -0.000000000000000000, -0.000000000000000000, -1.000000000000000000 ) ) ;
#292 = CARTESIAN_POINT ( 'NONE',  ( 0.000000000000000000, 0.000000000000000000, 505.0000000000000000 ) ) ;
#293 = DIRECTION ( 'NONE',  ( 1.000000000000000000, 0.000000000000000000, 0.000000000000000000 ) ) ;
#294 = EDGE_CURVE ( 'NONE', #165, #89, #243, .T. ) ;
#295 = DIRECTION ( 'NONE',  ( -1.000000000000000000, 0.000000000000000000, 0.000000000000000000 ) ) ;
#296 = PERSON_AND_ORGANIZATION_ROLE ( 'creator' ) ;
#297 = COORDINATED_UNIVERSAL_TIME_OFFSET ( 1, 0, .AHEAD. ) ;
#298 = LOCAL_TIME ( 14, 29, 14.00000000000000000, #299 ) ;
#299 = COORDINATED_UNIVERSAL_TIME_OFFSET ( 1, 0, .AHEAD. ) ;
#300 = ORIENTED_EDGE ( 'NONE', *, *, #238, .F. ) ;
#301 = COORDINATED_UNIVERSAL_TIME_OFFSET ( 1, 0, .AHEAD. ) ;
#302 = VECTOR ( 'NONE', #305, 1000.000000000000000 ) ;
#303 = FACE_OUTER_BOUND ( 'NONE', #59, .T. ) ;
#304 = APPROVAL ( #250, 'NEURÈENÝ' ) ;
#305 = DIRECTION ( 'NONE',  ( -0.000000000000000000, -0.000000000000000000, -1.000000000000000000 ) ) ;
#306 = LINE ( 'NONE', #96, #272 ) ;
#307 = DIRECTION ( 'NONE',  ( 0.000000000000000000, 0.000000000000000000, 1.000000000000000000 ) ) ;
ENDSEC;
END-ISO-10303-21;
