ISO-10303-21;
HEADER;
FILE_DESCRIPTION (( 'STEP AP203' ),
    '1' );
FILE_NAME ('2bbd.STEP',
    '2023-02-12T10:36:31',
    ( '' ),
    ( '' ),
    'SwSTEP 2.0',
    'SolidWorks 2019',
    '' );
FILE_SCHEMA (( 'CONFIG_CONTROL_DESIGN' ));
ENDSEC;

DATA;
#1 = DIRECTION ( 'NONE',  ( 1.000000000000000000, 0.000000000000000000, 0.000000000000000000 ) ) ;
#2 = CIRCLE ( 'NONE', #153, 13.00000000000000178 ) ;
#3 = DIRECTION ( 'NONE',  ( 0.000000000000000000, 0.000000000000000000, 1.000000000000000000 ) ) ;
#4 = AXIS2_PLACEMENT_3D ( 'NONE', #72, #11, #206 ) ;
#5 = DIRECTION ( 'NONE',  ( 0.000000000000000000, 0.000000000000000000, 1.000000000000000000 ) ) ;
#6 = ORIENTED_EDGE ( 'NONE', *, *, #62, .T. ) ;
#7 = AXIS2_PLACEMENT_3D ( 'NONE', #143, #124, #30 ) ;
#8 = LINE ( 'NONE', #245, #140 ) ;
#9 = PRODUCT_RELATED_PRODUCT_CATEGORY ( 'detail', '', ( #152 ) ) ;
#10 = AXIS2_PLACEMENT_3D ( 'NONE', #231, #244, #56 ) ;
#11 = DIRECTION ( 'NONE',  ( 0.000000000000000000, 0.000000000000000000, 1.000000000000000000 ) ) ;
#12 = LINE ( 'NONE', #111, #253 ) ;
#13 = APPROVAL ( #251, 'NEURÈENÝ' ) ;
#14 =( LENGTH_UNIT ( ) NAMED_UNIT ( * ) SI_UNIT ( .MILLI., .METRE. ) );
#15 = AXIS2_PLACEMENT_3D ( 'NONE', #68, #3, #46 ) ;
#16 = DIRECTION ( 'NONE',  ( -0.000000000000000000, -0.000000000000000000, -1.000000000000000000 ) ) ;
#17 = APPROVAL_DATE_TIME ( #40, #13 ) ;
#18 = PERSON_AND_ORGANIZATION_ROLE ( 'classification_officer' ) ;
#19 = CC_DESIGN_PERSON_AND_ORGANIZATION_ASSIGNMENT ( #79, #91, ( #109 ) ) ;
#20 = VECTOR ( 'NONE', #123, 1000.000000000000000 ) ;
#21 = SECURITY_CLASSIFICATION_LEVEL ( 'unclassified' ) ;
#22 = ORIENTED_EDGE ( 'NONE', *, *, #203, .F. ) ;
#23 = EDGE_CURVE ( 'NONE', #63, #61, #67, .T. ) ;
#24 = PERSON_AND_ORGANIZATION ( #223, #42 ) ;
#25 = ORIENTED_EDGE ( 'NONE', *, *, #203, .T. ) ;
#26 = VERTEX_POINT ( 'NONE', #125 ) ;
#27 = CC_DESIGN_APPROVAL ( #74, ( #243 ) ) ;
#28 = VERTEX_POINT ( 'NONE', #242 ) ;
#29 = CC_DESIGN_PERSON_AND_ORGANIZATION_ASSIGNMENT ( #24, #18, ( #83 ) ) ;
#30 = DIRECTION ( 'NONE',  ( 1.000000000000000000, 0.000000000000000000, 0.000000000000000000 ) ) ;
#31 = PLANE ( 'NONE',  #107 ) ;
#32 = CC_DESIGN_SECURITY_CLASSIFICATION ( #83, ( #243 ) ) ;
#33 = ORIENTED_EDGE ( 'NONE', *, *, #35, .F. ) ;
#34 = CYLINDRICAL_SURFACE ( 'NONE', #97, 13.00000000000000178 ) ;
#35 = EDGE_CURVE ( 'NONE', #101, #174, #197, .T. ) ;
#36 = CARTESIAN_POINT ( 'NONE',  ( -10.00000000000000178, 0.000000000000000000, 8.000000000000000000 ) ) ;
#37 = MANIFOLD_SOLID_BREP ( 'Pøidat vysunutím3', #128 ) ;
#38 =( NAMED_UNIT ( * ) PLANE_ANGLE_UNIT ( ) SI_UNIT ( $, .RADIAN. ) );
#39 = CC_DESIGN_DATE_AND_TIME_ASSIGNMENT ( #216, #75, ( #109 ) ) ;
#40 = DATE_AND_TIME ( #252, #211 ) ;
#41 = CIRCLE ( 'NONE', #7, 13.00000000000000178 ) ;
#42 = ORGANIZATION ( 'NEURÈENÝ', 'NEURÈENÝ', '' ) ;
#43 = ADVANCED_FACE ( 'NONE', ( #177 ), #31, .F. ) ;
#44 = CARTESIAN_POINT ( 'NONE',  ( 0.000000000000000000, 0.000000000000000000, 0.000000000000000000 ) ) ;
#45 = EDGE_CURVE ( 'NONE', #61, #63, #162, .T. ) ;
#46 = DIRECTION ( 'NONE',  ( 1.000000000000000000, 0.000000000000000000, 0.000000000000000000 ) ) ;
#47 = EDGE_LOOP ( 'NONE', ( #139, #50, #142, #250 ) ) ;
#48 = EDGE_LOOP ( 'NONE', ( #99, #224 ) ) ;
#49 = AXIS2_PLACEMENT_3D ( 'NONE', #181, #5, #131 ) ;
#50 = ORIENTED_EDGE ( 'NONE', *, *, #62, .F. ) ;
#51 = CC_DESIGN_PERSON_AND_ORGANIZATION_ASSIGNMENT ( #159, #135, ( #243 ) ) ;
#52 = DIRECTION ( 'NONE',  ( 1.000000000000000000, 0.000000000000000000, 0.000000000000000000 ) ) ;
#53 = FACE_OUTER_BOUND ( 'NONE', #47, .T. ) ;
#54 = CARTESIAN_POINT ( 'NONE',  ( 0.000000000000000000, 0.000000000000000000, 8.000000000000000000 ) ) ;
#55 = CC_DESIGN_APPROVAL ( #59, ( #83 ) ) ;
#56 = DIRECTION ( 'NONE',  ( 1.000000000000000000, 0.000000000000000000, 0.000000000000000000 ) ) ;
#57 = DIRECTION ( 'NONE',  ( -1.000000000000000000, 0.000000000000000000, 0.000000000000000000 ) ) ;
#58 = APPROVAL_STATUS ( 'not_yet_approved' ) ;
#59 = APPROVAL ( #58, 'NEURÈENÝ' ) ;
#60 = PERSON_AND_ORGANIZATION ( #223, #42 ) ;
#61 = VERTEX_POINT ( 'NONE', #122 ) ;
#62 = EDGE_CURVE ( 'NONE', #101, #26, #113, .T. ) ;
#63 = VERTEX_POINT ( 'NONE', #66 ) ;
#64 = VERTEX_POINT ( 'NONE', #65 ) ;
#65 = CARTESIAN_POINT ( 'NONE',  ( 13.00000000000000178, 1.592040838891559293E-15, 0.000000000000000000 ) ) ;
#66 = CARTESIAN_POINT ( 'NONE',  ( 10.00000000000000178, 1.224646799147353454E-15, 160.0000000000000000 ) ) ;
#67 = CIRCLE ( 'NONE', #241, 10.00000000000000178 ) ;
#68 = CARTESIAN_POINT ( 'NONE',  ( 0.000000000000000000, 0.000000000000000000, 160.0000000000000000 ) ) ;
#69 = DIRECTION ( 'NONE',  ( -0.000000000000000000, -0.000000000000000000, -1.000000000000000000 ) ) ;
#70 = DIRECTION ( 'NONE',  ( -1.000000000000000000, 0.000000000000000000, 0.000000000000000000 ) ) ;
#71 = CIRCLE ( 'NONE', #10, 10.00000000000000178 ) ;
#72 = CARTESIAN_POINT ( 'NONE',  ( 0.000000000000000000, 0.000000000000000000, 8.000000000000000000 ) ) ;
#73 = CYLINDRICAL_SURFACE ( 'NONE', #168, 13.00000000000000178 ) ;
#74 = APPROVAL ( #173, 'NEURÈENÝ' ) ;
#75 = DATE_TIME_ROLE ( 'creation_date' ) ;
#76 = LOCAL_TIME ( 11, 36, 31.00000000000000000, #248 ) ;
#77 = PERSON_AND_ORGANIZATION ( #223, #42 ) ;
#78 = APPLICATION_CONTEXT ( 'configuration controlled 3d designs of mechanical parts and assemblies' ) ;
#79 = PERSON_AND_ORGANIZATION ( #223, #42 ) ;
#80 = CALENDAR_DATE ( 2023, 12, 2 ) ;
#81 = EDGE_LOOP ( 'NONE', ( #6, #163 ) ) ;
#82 = ORIENTED_EDGE ( 'NONE', *, *, #23, .F. ) ;
#83 = SECURITY_CLASSIFICATION ( '', '', #21 ) ;
#84 = ORIENTED_EDGE ( 'NONE', *, *, #156, .T. ) ;
#85 = ORIENTED_EDGE ( 'NONE', *, *, #138, .T. ) ;
#86 = ORIENTED_EDGE ( 'NONE', *, *, #214, .T. ) ;
#87 = DIRECTION ( 'NONE',  ( -0.000000000000000000, -0.000000000000000000, -1.000000000000000000 ) ) ;
#88 = PRODUCT_DEFINITION_SHAPE ( 'NONE', 'NONE',  #109 ) ;
#89 = DIRECTION ( 'NONE',  ( 1.000000000000000000, 0.000000000000000000, 0.000000000000000000 ) ) ;
#90 = EDGE_CURVE ( 'NONE', #26, #101, #2, .T. ) ;
#91 = PERSON_AND_ORGANIZATION_ROLE ( 'creator' ) ;
#92 = CALENDAR_DATE ( 2023, 12, 2 ) ;
#93 = EDGE_LOOP ( 'NONE', ( #166, #119, #198, #86 ) ) ;
#94 = PERSON_AND_ORGANIZATION_ROLE ( 'creator' ) ;
#95 = DATE_AND_TIME ( #249, #130 ) ;
#96 = DESIGN_CONTEXT ( 'detailed design', #78, 'design' ) ;
#97 = AXIS2_PLACEMENT_3D ( 'NONE', #230, #149, #204 ) ;
#98 = EDGE_CURVE ( 'NONE', #174, #64, #41, .T. ) ;
#99 = ORIENTED_EDGE ( 'NONE', *, *, #45, .T. ) ;
#100 = DIRECTION ( 'NONE',  ( 0.000000000000000000, 0.000000000000000000, 1.000000000000000000 ) ) ;
#101 = VERTEX_POINT ( 'NONE', #221 ) ;
#102 = ADVANCED_FACE ( 'NONE', ( #199 ), #225, .T. ) ;
#103 = CIRCLE ( 'NONE', #205, 10.00000000000000178 ) ;
#104 = DIRECTION ( 'NONE',  ( 0.000000000000000000, 0.000000000000000000, 1.000000000000000000 ) ) ;
#105 = CARTESIAN_POINT ( 'NONE',  ( 0.000000000000000000, 0.000000000000000000, 0.000000000000000000 ) ) ;
#106 = CARTESIAN_POINT ( 'NONE',  ( 0.000000000000000000, 0.000000000000000000, 160.0000000000000000 ) ) ;
#107 = AXIS2_PLACEMENT_3D ( 'NONE', #105, #178, #239 ) ;
#108 =( NAMED_UNIT ( * ) SI_UNIT ( $, .STERADIAN. ) SOLID_ANGLE_UNIT ( ) );
#109 = PRODUCT_DEFINITION ( 'NEZNÁMÝ', '', #243, #96 ) ;
#110 = APPLICATION_PROTOCOL_DEFINITION ( 'international standard', 'config_control_design', 1994, #167 ) ;
#111 = CARTESIAN_POINT ( 'NONE',  ( 13.00000000000000178, 1.592040838891559293E-15, 8.000000000000000000 ) ) ;
#112 = CC_DESIGN_DATE_AND_TIME_ASSIGNMENT ( #95, #234, ( #83 ) ) ;
#113 = CIRCLE ( 'NONE', #160, 13.00000000000000178 ) ;
#114 = FACE_OUTER_BOUND ( 'NONE', #255, .T. ) ;
#115 =( GEOMETRIC_REPRESENTATION_CONTEXT ( 3 ) GLOBAL_UNCERTAINTY_ASSIGNED_CONTEXT ( ( #120 ) ) GLOBAL_UNIT_ASSIGNED_CONTEXT ( ( #14, #38, #108 ) ) REPRESENTATION_CONTEXT ( 'NONE', 'WORKASPACE' ) );
#116 = PERSON_AND_ORGANIZATION_ROLE ( 'design_owner' ) ;
#117 = DATE_AND_TIME ( #118, #192 ) ;
#118 = CALENDAR_DATE ( 2023, 12, 2 ) ;
#119 = ORIENTED_EDGE ( 'NONE', *, *, #45, .F. ) ;
#120 = UNCERTAINTY_MEASURE_WITH_UNIT (LENGTH_MEASURE( 1.000000000000000082E-05 ), #14, 'distance_accuracy_value', 'NONE');
#121 = PERSON_AND_ORGANIZATION ( #223, #42 ) ;
#122 = CARTESIAN_POINT ( 'NONE',  ( -10.00000000000000178, 0.000000000000000000, 160.0000000000000000 ) ) ;
#123 = DIRECTION ( 'NONE',  ( -0.000000000000000000, -0.000000000000000000, -1.000000000000000000 ) ) ;
#124 = DIRECTION ( 'NONE',  ( 0.000000000000000000, 0.000000000000000000, 1.000000000000000000 ) ) ;
#125 = CARTESIAN_POINT ( 'NONE',  ( 13.00000000000000178, 1.592040838891559293E-15, 8.000000000000000000 ) ) ;
#126 = CARTESIAN_POINT ( 'NONE',  ( 0.000000000000000000, 0.000000000000000000, 8.000000000000000000 ) ) ;
#127 = DIRECTION ( 'NONE',  ( 1.000000000000000000, 0.000000000000000000, 0.000000000000000000 ) ) ;
#128 = CLOSED_SHELL ( 'NONE', ( #209, #217, #182, #227, #43, #170, #102 ) ) ;
#129 = DIRECTION ( 'NONE',  ( 0.000000000000000000, 0.000000000000000000, 1.000000000000000000 ) ) ;
#130 = LOCAL_TIME ( 11, 36, 31.00000000000000000, #233 ) ;
#131 = DIRECTION ( 'NONE',  ( 1.000000000000000000, 0.000000000000000000, -0.000000000000000000 ) ) ;
#132 = VECTOR ( 'NONE', #151, 1000.000000000000000 ) ;
#133 = MECHANICAL_CONTEXT ( 'NONE', #167, 'mechanical' ) ;
#134 = APPROVAL_PERSON_ORGANIZATION ( #175, #13, #193 ) ;
#135 = PERSON_AND_ORGANIZATION_ROLE ( 'design_supplier' ) ;
#136 = PERSON_AND_ORGANIZATION ( #223, #42 ) ;
#137 = DIRECTION ( 'NONE',  ( 0.000000000000000000, 0.000000000000000000, 1.000000000000000000 ) ) ;
#138 = EDGE_CURVE ( 'NONE', #26, #64, #12, .T. ) ;
#139 = ORIENTED_EDGE ( 'NONE', *, *, #138, .F. ) ;
#140 = VECTOR ( 'NONE', #69, 1000.000000000000000 ) ;
#141 = APPROVAL_PERSON_ORGANIZATION ( #136, #74, #190 ) ;
#142 = ORIENTED_EDGE ( 'NONE', *, *, #35, .T. ) ;
#143 = CARTESIAN_POINT ( 'NONE',  ( 0.000000000000000000, 0.000000000000000000, 0.000000000000000000 ) ) ;
#144 = DIRECTION ( 'NONE',  ( 1.000000000000000000, 0.000000000000000000, 0.000000000000000000 ) ) ;
#145 = CARTESIAN_POINT ( 'NONE',  ( 0.000000000000000000, 0.000000000000000000, 8.000000000000000000 ) ) ;
#146 = EDGE_CURVE ( 'NONE', #61, #194, #8, .T. ) ;
#147 = CYLINDRICAL_SURFACE ( 'NONE', #195, 10.00000000000000178 ) ;
#148 = LINE ( 'NONE', #184, #132 ) ;
#149 = DIRECTION ( 'NONE',  ( -0.000000000000000000, -0.000000000000000000, -1.000000000000000000 ) ) ;
#150 = CARTESIAN_POINT ( 'NONE',  ( -13.00000000000000178, 0.000000000000000000, 0.000000000000000000 ) ) ;
#151 = DIRECTION ( 'NONE',  ( -0.000000000000000000, -0.000000000000000000, -1.000000000000000000 ) ) ;
#152 = PRODUCT ( '2bbd', '2bbd', '', ( #133 ) ) ;
#153 = AXIS2_PLACEMENT_3D ( 'NONE', #237, #201, #1 ) ;
#154 = APPROVAL_DATE_TIME ( #117, #74 ) ;
#155 = CIRCLE ( 'NONE', #229, 13.00000000000000178 ) ;
#156 = EDGE_CURVE ( 'NONE', #63, #28, #148, .T. ) ;
#157 = DATE_AND_TIME ( #92, #200 ) ;
#158 = APPLICATION_PROTOCOL_DEFINITION ( 'international standard', 'config_control_design', 1994, #78 ) ;
#159 = PERSON_AND_ORGANIZATION ( #223, #42 ) ;
#160 = AXIS2_PLACEMENT_3D ( 'NONE', #145, #100, #144 ) ;
#161 = ORIENTED_EDGE ( 'NONE', *, *, #188, .F. ) ;
#162 = CIRCLE ( 'NONE', #15, 10.00000000000000178 ) ;
#163 = ORIENTED_EDGE ( 'NONE', *, *, #90, .T. ) ;
#164 = EDGE_LOOP ( 'NONE', ( #82, #84, #25, #179 ) ) ;
#165 = CARTESIAN_POINT ( 'NONE',  ( -13.00000000000000178, 0.000000000000000000, 8.000000000000000000 ) ) ;
#166 = ORIENTED_EDGE ( 'NONE', *, *, #156, .F. ) ;
#167 = APPLICATION_CONTEXT ( 'configuration controlled 3d designs of mechanical parts and assemblies' ) ;
#168 = AXIS2_PLACEMENT_3D ( 'NONE', #126, #186, #57 ) ;
#169 = CYLINDRICAL_SURFACE ( 'NONE', #180, 10.00000000000000178 ) ;
#170 = ADVANCED_FACE ( 'NONE', ( #171 ), #147, .T. ) ;
#171 = FACE_OUTER_BOUND ( 'NONE', #93, .T. ) ;
#172 = FACE_OUTER_BOUND ( 'NONE', #81, .T. ) ;
#173 = APPROVAL_STATUS ( 'not_yet_approved' ) ;
#174 = VERTEX_POINT ( 'NONE', #150 ) ;
#175 = PERSON_AND_ORGANIZATION ( #223, #42 ) ;
#176 = COORDINATED_UNIVERSAL_TIME_OFFSET ( 1, 0, .AHEAD. ) ;
#177 = FACE_OUTER_BOUND ( 'NONE', #240, .T. ) ;
#178 = DIRECTION ( 'NONE',  ( 0.000000000000000000, 0.000000000000000000, 1.000000000000000000 ) ) ;
#179 = ORIENTED_EDGE ( 'NONE', *, *, #146, .F. ) ;
#180 = AXIS2_PLACEMENT_3D ( 'NONE', #106, #207, #232 ) ;
#181 = CARTESIAN_POINT ( 'NONE',  ( 0.000000000000000000, 0.000000000000000000, 160.0000000000000000 ) ) ;
#182 = ADVANCED_FACE ( 'NONE', ( #53 ), #34, .T. ) ;
#183 = ORIENTED_EDGE ( 'NONE', *, *, #98, .F. ) ;
#184 = CARTESIAN_POINT ( 'NONE',  ( 10.00000000000000178, 1.224646799147353454E-15, 160.0000000000000000 ) ) ;
#185 = AXIS2_PLACEMENT_3D ( 'NONE', #44, #137, #215 ) ;
#186 = DIRECTION ( 'NONE',  ( -0.000000000000000000, -0.000000000000000000, -1.000000000000000000 ) ) ;
#187 = CC_DESIGN_PERSON_AND_ORGANIZATION_ASSIGNMENT ( #77, #116, ( #152 ) ) ;
#188 = EDGE_CURVE ( 'NONE', #64, #174, #155, .T. ) ;
#189 = COORDINATED_UNIVERSAL_TIME_OFFSET ( 1, 0, .AHEAD. ) ;
#190 = APPROVAL_ROLE ( '' ) ;
#191 = EDGE_LOOP ( 'NONE', ( #236, #22 ) ) ;
#192 = LOCAL_TIME ( 11, 36, 31.00000000000000000, #213 ) ;
#193 = APPROVAL_ROLE ( '' ) ;
#194 = VERTEX_POINT ( 'NONE', #36 ) ;
#195 = AXIS2_PLACEMENT_3D ( 'NONE', #246, #87, #70 ) ;
#196 = ORIENTED_EDGE ( 'NONE', *, *, #188, .T. ) ;
#197 = LINE ( 'NONE', #165, #20 ) ;
#198 = ORIENTED_EDGE ( 'NONE', *, *, #146, .T. ) ;
#199 = FACE_OUTER_BOUND ( 'NONE', #48, .T. ) ;
#200 = LOCAL_TIME ( 11, 36, 31.00000000000000000, #176 ) ;
#201 = DIRECTION ( 'NONE',  ( 0.000000000000000000, 0.000000000000000000, 1.000000000000000000 ) ) ;
#202 = FACE_OUTER_BOUND ( 'NONE', #164, .T. ) ;
#203 = EDGE_CURVE ( 'NONE', #28, #194, #103, .T. ) ;
#204 = DIRECTION ( 'NONE',  ( -1.000000000000000000, 0.000000000000000000, 0.000000000000000000 ) ) ;
#205 = AXIS2_PLACEMENT_3D ( 'NONE', #54, #129, #127 ) ;
#206 = DIRECTION ( 'NONE',  ( 1.000000000000000000, 0.000000000000000000, -0.000000000000000000 ) ) ;
#207 = DIRECTION ( 'NONE',  ( -0.000000000000000000, -0.000000000000000000, -1.000000000000000000 ) ) ;
#208 = FACE_BOUND ( 'NONE', #191, .T. ) ;
#209 = ADVANCED_FACE ( 'NONE', ( #202 ), #169, .T. ) ;
#210 = SHAPE_DEFINITION_REPRESENTATION ( #88, #235 ) ;
#211 = LOCAL_TIME ( 11, 36, 31.00000000000000000, #189 ) ;
#212 = APPROVAL_ROLE ( '' ) ;
#213 = COORDINATED_UNIVERSAL_TIME_OFFSET ( 1, 0, .AHEAD. ) ;
#214 = EDGE_CURVE ( 'NONE', #194, #28, #71, .T. ) ;
#215 = DIRECTION ( 'NONE',  ( 1.000000000000000000, 0.000000000000000000, 0.000000000000000000 ) ) ;
#216 = DATE_AND_TIME ( #80, #76 ) ;
#217 = ADVANCED_FACE ( 'NONE', ( #114 ), #73, .T. ) ;
#218 = ORIENTED_EDGE ( 'NONE', *, *, #90, .F. ) ;
#219 = APPROVAL_PERSON_ORGANIZATION ( #60, #59, #212 ) ;
#220 = CARTESIAN_POINT ( 'NONE',  ( 0.000000000000000000, 0.000000000000000000, 160.0000000000000000 ) ) ;
#221 = CARTESIAN_POINT ( 'NONE',  ( -13.00000000000000178, 0.000000000000000000, 8.000000000000000000 ) ) ;
#222 = CC_DESIGN_PERSON_AND_ORGANIZATION_ASSIGNMENT ( #121, #94, ( #243 ) ) ;
#223 = PERSON ( 'NEURÈENÝ', 'NEURÈENÝ', 'NEURÈENÝ', ('NEURÈENÝ'), ('NEURÈENÝ'), ('NEURÈENÝ') ) ;
#224 = ORIENTED_EDGE ( 'NONE', *, *, #23, .T. ) ;
#225 = PLANE ( 'NONE',  #49 ) ;
#226 = CARTESIAN_POINT ( 'NONE',  ( 0.000000000000000000, 0.000000000000000000, 0.000000000000000000 ) ) ;
#227 = ADVANCED_FACE ( 'NONE', ( #208, #172 ), #247, .T. ) ;
#228 = DIRECTION ( 'NONE',  ( 0.000000000000000000, 0.000000000000000000, 1.000000000000000000 ) ) ;
#229 = AXIS2_PLACEMENT_3D ( 'NONE', #226, #228, #89 ) ;
#230 = CARTESIAN_POINT ( 'NONE',  ( 0.000000000000000000, 0.000000000000000000, 8.000000000000000000 ) ) ;
#231 = CARTESIAN_POINT ( 'NONE',  ( 0.000000000000000000, 0.000000000000000000, 8.000000000000000000 ) ) ;
#232 = DIRECTION ( 'NONE',  ( -1.000000000000000000, 0.000000000000000000, 0.000000000000000000 ) ) ;
#233 = COORDINATED_UNIVERSAL_TIME_OFFSET ( 1, 0, .AHEAD. ) ;
#234 = DATE_TIME_ROLE ( 'classification_date' ) ;
#235 = ADVANCED_BREP_SHAPE_REPRESENTATION ( '2bbd', ( #37, #185 ), #115 ) ;
#236 = ORIENTED_EDGE ( 'NONE', *, *, #214, .F. ) ;
#237 = CARTESIAN_POINT ( 'NONE',  ( 0.000000000000000000, 0.000000000000000000, 8.000000000000000000 ) ) ;
#238 = CC_DESIGN_APPROVAL ( #13, ( #109 ) ) ;
#239 = DIRECTION ( 'NONE',  ( 1.000000000000000000, 0.000000000000000000, -0.000000000000000000 ) ) ;
#240 = EDGE_LOOP ( 'NONE', ( #183, #161 ) ) ;
#241 = AXIS2_PLACEMENT_3D ( 'NONE', #220, #104, #52 ) ;
#242 = CARTESIAN_POINT ( 'NONE',  ( 10.00000000000000178, 1.224646799147353454E-15, 8.000000000000000000 ) ) ;
#243 = PRODUCT_DEFINITION_FORMATION_WITH_SPECIFIED_SOURCE ( 'LIBOVOLNÝ', '', #152, .NOT_KNOWN. ) ;
#244 = DIRECTION ( 'NONE',  ( 0.000000000000000000, 0.000000000000000000, 1.000000000000000000 ) ) ;
#245 = CARTESIAN_POINT ( 'NONE',  ( -10.00000000000000178, 0.000000000000000000, 160.0000000000000000 ) ) ;
#246 = CARTESIAN_POINT ( 'NONE',  ( 0.000000000000000000, 0.000000000000000000, 160.0000000000000000 ) ) ;
#247 = PLANE ( 'NONE',  #4 ) ;
#248 = COORDINATED_UNIVERSAL_TIME_OFFSET ( 1, 0, .AHEAD. ) ;
#249 = CALENDAR_DATE ( 2023, 12, 2 ) ;
#250 = ORIENTED_EDGE ( 'NONE', *, *, #98, .T. ) ;
#251 = APPROVAL_STATUS ( 'not_yet_approved' ) ;
#252 = CALENDAR_DATE ( 2023, 12, 2 ) ;
#253 = VECTOR ( 'NONE', #16, 1000.000000000000000 ) ;
#254 = APPROVAL_DATE_TIME ( #157, #59 ) ;
#255 = EDGE_LOOP ( 'NONE', ( #218, #85, #196, #33 ) ) ;
ENDSEC;
END-ISO-10303-21;
