ISO-10303-21;
HEADER;
FILE_DESCRIPTION (( 'STEP AP203' ),
    '1' );
FILE_NAME ('3859.STEP',
    '2022-07-07T12:54:11',
    ( '' ),
    ( '' ),
    'SwSTEP 2.0',
    'SolidWorks 2019',
    '' );
FILE_SCHEMA (( 'CONFIG_CONTROL_DESIGN' ));
ENDSEC;

DATA;
#1 = ORIENTED_EDGE ( 'NONE', *, *, #82, .F. ) ;
#2 = EDGE_CURVE ( 'NONE', #196, #118, #263, .T. ) ;
#3 = CARTESIAN_POINT ( 'NONE',  ( 3.000000000000000444, 3.673940397442060361E-16, 3.000000000000000000 ) ) ;
#4 = DESIGN_CONTEXT ( 'detailed design', #45, 'design' ) ;
#5 = ORIENTED_EDGE ( 'NONE', *, *, #216, .T. ) ;
#6 = ADVANCED_FACE ( 'NONE', ( #54 ), #171, .F. ) ;
#7 = DIRECTION ( 'NONE',  ( -1.000000000000000000, 0.000000000000000000, 0.000000000000000000 ) ) ;
#8 = CARTESIAN_POINT ( 'NONE',  ( 0.000000000000000000, 0.000000000000000000, 0.000000000000000000 ) ) ;
#9 = DATE_AND_TIME ( #66, #36 ) ;
#10 = CARTESIAN_POINT ( 'NONE',  ( 0.000000000000000000, 0.000000000000000000, 3.000000000000000000 ) ) ;
#11 = PERSON_AND_ORGANIZATION_ROLE ( 'design_owner' ) ;
#12 = DIRECTION ( 'NONE',  ( 0.000000000000000000, 0.000000000000000000, 1.000000000000000000 ) ) ;
#13 = CARTESIAN_POINT ( 'NONE',  ( 0.000000000000000000, 0.000000000000000000, 3.000000000000000000 ) ) ;
#14 = APPROVAL_DATE_TIME ( #42, #124 ) ;
#15 = DIRECTION ( 'NONE',  ( 1.000000000000000000, 0.000000000000000000, 0.000000000000000000 ) ) ;
#16 = PERSON_AND_ORGANIZATION ( #64, #218 ) ;
#17 = EDGE_CURVE ( 'NONE', #100, #119, #77, .T. ) ;
#18 = EDGE_LOOP ( 'NONE', ( #289, #127 ) ) ;
#19 = CIRCLE ( 'NONE', #37, 1.600000000000000089 ) ;
#20 = APPROVAL_PERSON_ORGANIZATION ( #208, #238, #292 ) ;
#21 = CIRCLE ( 'NONE', #303, 1.800000000000000266 ) ;
#22 = ORIENTED_EDGE ( 'NONE', *, *, #114, .F. ) ;
#23 = EDGE_LOOP ( 'NONE', ( #217, #240, #195, #304 ) ) ;
#24 = EDGE_LOOP ( 'NONE', ( #260, #222, #5, #96 ) ) ;
#25 = AXIS2_PLACEMENT_3D ( 'NONE', #10, #293, #15 ) ;
#26 = APPLICATION_CONTEXT ( 'configuration controlled 3d designs of mechanical parts and assemblies' ) ;
#27 = DIRECTION ( 'NONE',  ( 1.000000000000000000, 0.000000000000000000, 0.000000000000000000 ) ) ;
#28 = ADVANCED_FACE ( 'NONE', ( #131, #284 ), #202, .T. ) ;
#29 = ORIENTED_EDGE ( 'NONE', *, *, #2, .T. ) ;
#30 = DIRECTION ( 'NONE',  ( 1.000000000000000000, 0.000000000000000000, 0.000000000000000000 ) ) ;
#31 = CIRCLE ( 'NONE', #25, 3.000000000000000444 ) ;
#32 = CARTESIAN_POINT ( 'NONE',  ( 0.000000000000000000, 0.000000000000000000, 3.000000000000000000 ) ) ;
#33 = FACE_OUTER_BOUND ( 'NONE', #51, .T. ) ;
#34 = DIRECTION ( 'NONE',  ( 1.000000000000000000, 0.000000000000000000, 0.000000000000000000 ) ) ;
#35 = DIRECTION ( 'NONE',  ( 1.000000000000000000, 0.000000000000000000, 0.000000000000000000 ) ) ;
#36 = LOCAL_TIME ( 14, 54, 11.00000000000000000, #69 ) ;
#37 = AXIS2_PLACEMENT_3D ( 'NONE', #242, #306, #225 ) ;
#38 = EDGE_CURVE ( 'NONE', #285, #121, #19, .T. ) ;
#39 = LINE ( 'NONE', #105, #47 ) ;
#40 = CARTESIAN_POINT ( 'NONE',  ( -1.600000000000000089, 0.000000000000000000, 163.0000000000000000 ) ) ;
#41 = MANIFOLD_SOLID_BREP ( 'Zaoblit1', #65 ) ;
#42 = DATE_AND_TIME ( #277, #281 ) ;
#43 = AXIS2_PLACEMENT_3D ( 'NONE', #182, #231, #166 ) ;
#44 = PERSON_AND_ORGANIZATION_ROLE ( 'design_supplier' ) ;
#45 = APPLICATION_CONTEXT ( 'configuration controlled 3d designs of mechanical parts and assemblies' ) ;
#46 = ORIENTED_EDGE ( 'NONE', *, *, #82, .T. ) ;
#47 = VECTOR ( 'NONE', #140, 1000.000000000000000 ) ;
#48 = CC_DESIGN_SECURITY_CLASSIFICATION ( #53, ( #302 ) ) ;
#49 = AXIS2_PLACEMENT_3D ( 'NONE', #55, #155, #128 ) ;
#50 = ORIENTED_EDGE ( 'NONE', *, *, #97, .T. ) ;
#51 = EDGE_LOOP ( 'NONE', ( #236, #1, #307, #170 ) ) ;
#52 = EDGE_CURVE ( 'NONE', #220, #196, #169, .T. ) ;
#53 = SECURITY_CLASSIFICATION ( '', '', #142 ) ;
#54 = FACE_OUTER_BOUND ( 'NONE', #18, .T. ) ;
#55 = CARTESIAN_POINT ( 'NONE',  ( 0.000000000000000000, 0.000000000000000000, 0.000000000000000000 ) ) ;
#56 = PRODUCT_DEFINITION ( 'NEZNÁMÝ', '', #302, #4 ) ;
#57 = CARTESIAN_POINT ( 'NONE',  ( 0.000000000000000000, 0.000000000000000000, 3.000000000000000000 ) ) ;
#58 = CARTESIAN_POINT ( 'NONE',  ( 1.800000000000000266, 0.000000000000000000, 3.200000000000008171 ) ) ;
#59 = CYLINDRICAL_SURFACE ( 'NONE', #186, 1.600000000000000089 ) ;
#60 = DIRECTION ( 'NONE',  ( -1.000000000000000000, 1.224646799147354686E-16, 0.000000000000000000 ) ) ;
#61 = APPROVAL_ROLE ( '' ) ;
#62 = CARTESIAN_POINT ( 'NONE',  ( 0.000000000000000000, 0.000000000000000000, 3.200000000000008171 ) ) ;
#63 = AXIS2_PLACEMENT_3D ( 'NONE', #271, #67, #35 ) ;
#64 = PERSON ( 'NEURÈENÝ', 'NEURÈENÝ', 'NEURÈENÝ', ('NEURÈENÝ'), ('NEURÈENÝ'), ('NEURÈENÝ') ) ;
#65 = CLOSED_SHELL ( 'NONE', ( #149, #141, #287, #190, #28, #6, #201, #265, #177 ) ) ;
#66 = CALENDAR_DATE ( 2022, 7, 7 ) ;
#67 = DIRECTION ( 'NONE',  ( 0.000000000000000000, 0.000000000000000000, 1.000000000000000000 ) ) ;
#68 = PERSON_AND_ORGANIZATION_ROLE ( 'creator' ) ;
#69 = COORDINATED_UNIVERSAL_TIME_OFFSET ( 1, 0, .AHEAD. ) ;
#70 = EDGE_LOOP ( 'NONE', ( #29, #213 ) ) ;
#71 = EDGE_LOOP ( 'NONE', ( #154, #214, #299, #157 ) ) ;
#72 = LOCAL_TIME ( 14, 54, 11.00000000000000000, #212 ) ;
#73 = ORIENTED_EDGE ( 'NONE', *, *, #301, .F. ) ;
#74 = EDGE_CURVE ( 'NONE', #262, #119, #228, .T. ) ;
#75 = DIRECTION ( 'NONE',  ( 1.000000000000000000, 0.000000000000000000, -0.000000000000000000 ) ) ;
#76 = AXIS2_PLACEMENT_3D ( 'NONE', #251, #297, #207 ) ;
#77 = LINE ( 'NONE', #3, #193 ) ;
#78 = CARTESIAN_POINT ( 'NONE',  ( -1.600000000000000089, 0.000000000000000000, 163.0000000000000000 ) ) ;
#79 = CARTESIAN_POINT ( 'NONE',  ( 0.000000000000000000, 0.000000000000000000, 3.000000000000000000 ) ) ;
#80 = DIRECTION ( 'NONE',  ( 0.000000000000000000, 0.000000000000000000, 1.000000000000000000 ) ) ;
#81 = DIRECTION ( 'NONE',  ( 1.224646799147353207E-16, 1.000000000000000000, -0.000000000000000000 ) ) ;
#82 = EDGE_CURVE ( 'NONE', #121, #285, #95, .T. ) ;
#83 = UNCERTAINTY_MEASURE_WITH_UNIT (LENGTH_MEASURE( 1.000000000000000082E-05 ), #254, 'distance_accuracy_value', 'NONE');
#84 = DATE_AND_TIME ( #300, #151 ) ;
#85 = CARTESIAN_POINT ( 'NONE',  ( 1.600000000000000089, 1.959434878635765230E-16, 163.0000000000000000 ) ) ;
#86 = PERSON_AND_ORGANIZATION ( #64, #218 ) ;
#87 = CARTESIAN_POINT ( 'NONE',  ( -1.800000000000000266, 2.204364238465236069E-16, 3.200000000000008171 ) ) ;
#88 = AXIS2_PLACEMENT_3D ( 'NONE', #290, #80, #247 ) ;
#89 = CIRCLE ( 'NONE', #63, 1.600000000000000089 ) ;
#90 = COORDINATED_UNIVERSAL_TIME_OFFSET ( 1, 0, .AHEAD. ) ;
#91 = CC_DESIGN_DATE_AND_TIME_ASSIGNMENT ( #253, #192, ( #56 ) ) ;
#92 = DIRECTION ( 'NONE',  ( 1.000000000000000000, 0.000000000000000000, 0.000000000000000000 ) ) ;
#93 = DATE_AND_TIME ( #159, #143 ) ;
#94 = APPROVAL_STATUS ( 'not_yet_approved' ) ;
#95 = CIRCLE ( 'NONE', #261, 1.600000000000000089 ) ;
#96 = ORIENTED_EDGE ( 'NONE', *, *, #74, .T. ) ;
#97 = EDGE_CURVE ( 'NONE', #198, #100, #237, .T. ) ;
#98 = CARTESIAN_POINT ( 'NONE',  ( 0.000000000000000000, 0.000000000000000000, 0.000000000000000000 ) ) ;
#99 = ORIENTED_EDGE ( 'NONE', *, *, #38, .T. ) ;
#100 = VERTEX_POINT ( 'NONE', #200 ) ;
#101 = AXIS2_PLACEMENT_3D ( 'NONE', #8, #233, #92 ) ;
#102 = DIRECTION ( 'NONE',  ( 0.000000000000000000, 0.000000000000000000, 1.000000000000000000 ) ) ;
#103 = EDGE_CURVE ( 'NONE', #121, #194, #288, .T. ) ;
#104 = DIRECTION ( 'NONE',  ( -0.000000000000000000, -0.000000000000000000, -1.000000000000000000 ) ) ;
#105 = CARTESIAN_POINT ( 'NONE',  ( -3.000000000000000444, 0.000000000000000000, 3.000000000000000000 ) ) ;
#106 = APPROVAL ( #273, 'NEURÈENÝ' ) ;
#107 = CARTESIAN_POINT ( 'NONE',  ( -3.000000000000000444, 0.000000000000000000, 3.000000000000000000 ) ) ;
#108 = APPROVAL_DATE_TIME ( #84, #238 ) ;
#109 = CARTESIAN_POINT ( 'NONE',  ( 0.000000000000000000, 0.000000000000000000, 163.0000000000000000 ) ) ;
#110 = PRODUCT_DEFINITION_SHAPE ( 'NONE', 'NONE',  #56 ) ;
#111 = COORDINATED_UNIVERSAL_TIME_OFFSET ( 1, 0, .AHEAD. ) ;
#112 = CARTESIAN_POINT ( 'NONE',  ( -3.000000000000000444, 0.000000000000000000, 0.000000000000000000 ) ) ;
#113 = APPLICATION_PROTOCOL_DEFINITION ( 'international standard', 'config_control_design', 1994, #45 ) ;
#114 = EDGE_CURVE ( 'NONE', #118, #196, #21, .T. ) ;
#115 = DIRECTION ( 'NONE',  ( -1.000000000000000000, 0.000000000000000000, 0.000000000000000000 ) ) ;
#116 = DATE_TIME_ROLE ( 'classification_date' ) ;
#117 = PERSON_AND_ORGANIZATION_ROLE ( 'creator' ) ;
#118 = VERTEX_POINT ( 'NONE', #226 ) ;
#119 = VERTEX_POINT ( 'NONE', #158 ) ;
#120 = AXIS2_PLACEMENT_3D ( 'NONE', #136, #206, #230 ) ;
#121 = VERTEX_POINT ( 'NONE', #40 ) ;
#122 = ADVANCED_BREP_SHAPE_REPRESENTATION ( '3859', ( #41, #43 ), #204 ) ;
#123 = ORIENTED_EDGE ( 'NONE', *, *, #52, .T. ) ;
#124 = APPROVAL ( #94, 'NEURÈENÝ' ) ;
#125 = DIRECTION ( 'NONE',  ( 1.000000000000000000, 0.000000000000000000, 0.000000000000000000 ) ) ;
#126 = CC_DESIGN_APPROVAL ( #238, ( #56 ) ) ;
#127 = ORIENTED_EDGE ( 'NONE', *, *, #168, .F. ) ;
#128 = DIRECTION ( 'NONE',  ( 1.000000000000000000, 0.000000000000000000, -0.000000000000000000 ) ) ;
#129 = CARTESIAN_POINT ( 'NONE',  ( 0.000000000000000000, 0.000000000000000000, 3.000000000000000000 ) ) ;
#130 = CIRCLE ( 'NONE', #296, 0.1999999999999998723 ) ;
#131 = FACE_BOUND ( 'NONE', #70, .T. ) ;
#132 = DIRECTION ( 'NONE',  ( -0.000000000000000000, -0.000000000000000000, -1.000000000000000000 ) ) ;
#133 = LINE ( 'NONE', #85, #223 ) ;
#134 = PERSON_AND_ORGANIZATION ( #64, #218 ) ;
#135 = VECTOR ( 'NONE', #176, 1000.000000000000000 ) ;
#136 = CARTESIAN_POINT ( 'NONE',  ( 0.000000000000000000, 0.000000000000000000, 3.000000000000000000 ) ) ;
#137 =( NAMED_UNIT ( * ) SI_UNIT ( $, .STERADIAN. ) SOLID_ANGLE_UNIT ( ) );
#138 = FACE_OUTER_BOUND ( 'NONE', #257, .T. ) ;
#139 =( NAMED_UNIT ( * ) PLANE_ANGLE_UNIT ( ) SI_UNIT ( $, .RADIAN. ) );
#140 = DIRECTION ( 'NONE',  ( -0.000000000000000000, -0.000000000000000000, -1.000000000000000000 ) ) ;
#141 = ADVANCED_FACE ( 'NONE', ( #181 ), #189, .T. ) ;
#142 = SECURITY_CLASSIFICATION_LEVEL ( 'unclassified' ) ;
#143 = LOCAL_TIME ( 14, 54, 11.00000000000000000, #184 ) ;
#144 = ORIENTED_EDGE ( 'NONE', *, *, #301, .T. ) ;
#145 = TOROIDAL_SURFACE ( 'NONE', #174, 1.800000000000000266, 0.2000000000000000111 ) ;
#146 = EDGE_LOOP ( 'NONE', ( #73, #278, #219, #197 ) ) ;
#147 = CC_DESIGN_APPROVAL ( #124, ( #302 ) ) ;
#148 = AXIS2_PLACEMENT_3D ( 'NONE', #58, #264, #243 ) ;
#149 = ADVANCED_FACE ( 'NONE', ( #211 ), #145, .F. ) ;
#150 = DIRECTION ( 'NONE',  ( 0.000000000000000000, 0.000000000000000000, 1.000000000000000000 ) ) ;
#151 = LOCAL_TIME ( 14, 54, 11.00000000000000000, #90 ) ;
#152 = EDGE_LOOP ( 'NONE', ( #267, #191, #123, #22 ) ) ;
#153 = EDGE_CURVE ( 'NONE', #220, #194, #89, .T. ) ;
#154 = ORIENTED_EDGE ( 'NONE', *, *, #256, .F. ) ;
#155 = DIRECTION ( 'NONE',  ( 0.000000000000000000, 0.000000000000000000, 1.000000000000000000 ) ) ;
#156 = AXIS2_PLACEMENT_3D ( 'NONE', #32, #104, #125 ) ;
#157 = ORIENTED_EDGE ( 'NONE', *, *, #52, .F. ) ;
#158 = CARTESIAN_POINT ( 'NONE',  ( 3.000000000000000444, 3.673940397442060361E-16, 0.000000000000000000 ) ) ;
#159 = CALENDAR_DATE ( 2022, 7, 7 ) ;
#160 = FACE_OUTER_BOUND ( 'NONE', #146, .T. ) ;
#161 = CALENDAR_DATE ( 2022, 7, 7 ) ;
#162 = DIRECTION ( 'NONE',  ( 0.000000000000000000, 0.000000000000000000, 1.000000000000000000 ) ) ;
#163 = CIRCLE ( 'NONE', #101, 3.000000000000000444 ) ;
#164 = SHAPE_DEFINITION_REPRESENTATION ( #110, #122 ) ;
#165 = CARTESIAN_POINT ( 'NONE',  ( 1.600000000000000089, 1.959434878635765230E-16, 163.0000000000000000 ) ) ;
#166 = DIRECTION ( 'NONE',  ( 1.000000000000000000, 0.000000000000000000, 0.000000000000000000 ) ) ;
#167 = APPROVAL_DATE_TIME ( #9, #106 ) ;
#168 = EDGE_CURVE ( 'NONE', #119, #262, #163, .T. ) ;
#169 = CIRCLE ( 'NONE', #148, 0.2000000000000000944 ) ;
#170 = ORIENTED_EDGE ( 'NONE', *, *, #256, .T. ) ;
#171 = PLANE ( 'NONE',  #49 ) ;
#172 = APPROVAL_PERSON_ORGANIZATION ( #134, #106, #61 ) ;
#173 = CC_DESIGN_PERSON_AND_ORGANIZATION_ASSIGNMENT ( #235, #11, ( #179 ) ) ;
#174 = AXIS2_PLACEMENT_3D ( 'NONE', #62, #162, #269 ) ;
#175 = DIRECTION ( 'NONE',  ( -0.000000000000000000, -0.000000000000000000, -1.000000000000000000 ) ) ;
#176 = DIRECTION ( 'NONE',  ( -0.000000000000000000, -0.000000000000000000, -1.000000000000000000 ) ) ;
#177 = ADVANCED_FACE ( 'NONE', ( #183 ), #215, .F. ) ;
#178 = DIRECTION ( 'NONE',  ( 0.000000000000000000, 0.000000000000000000, 1.000000000000000000 ) ) ;
#179 = PRODUCT ( '3859', '3859', '', ( #275 ) ) ;
#180 = CARTESIAN_POINT ( 'NONE',  ( 1.800000000000000266, 0.000000000000000000, 3.000000000000004441 ) ) ;
#181 = FACE_OUTER_BOUND ( 'NONE', #23, .T. ) ;
#182 = CARTESIAN_POINT ( 'NONE',  ( 0.000000000000000000, 0.000000000000000000, 0.000000000000000000 ) ) ;
#183 = FACE_OUTER_BOUND ( 'NONE', #152, .T. ) ;
#184 = COORDINATED_UNIVERSAL_TIME_OFFSET ( 1, 0, .AHEAD. ) ;
#185 = CC_DESIGN_PERSON_AND_ORGANIZATION_ASSIGNMENT ( #234, #279, ( #53 ) ) ;
#186 = AXIS2_PLACEMENT_3D ( 'NONE', #109, #132, #7 ) ;
#187 = APPROVAL_PERSON_ORGANIZATION ( #16, #124, #298 ) ;
#188 = CARTESIAN_POINT ( 'NONE',  ( 0.000000000000000000, 0.000000000000000000, 3.200000000000008171 ) ) ;
#189 = CYLINDRICAL_SURFACE ( 'NONE', #76, 1.600000000000000089 ) ;
#190 = ADVANCED_FACE ( 'NONE', ( #246 ), #232, .T. ) ;
#191 = ORIENTED_EDGE ( 'NONE', *, *, #153, .F. ) ;
#192 = DATE_TIME_ROLE ( 'creation_date' ) ;
#193 = VECTOR ( 'NONE', #175, 1000.000000000000000 ) ;
#194 = VERTEX_POINT ( 'NONE', #276 ) ;
#195 = ORIENTED_EDGE ( 'NONE', *, *, #153, .T. ) ;
#196 = VERTEX_POINT ( 'NONE', #180 ) ;
#197 = ORIENTED_EDGE ( 'NONE', *, *, #216, .F. ) ;
#198 = VERTEX_POINT ( 'NONE', #107 ) ;
#199 = AXIS2_PLACEMENT_3D ( 'NONE', #98, #150, #283 ) ;
#200 = CARTESIAN_POINT ( 'NONE',  ( 3.000000000000000444, 3.673940397442060361E-16, 3.000000000000000000 ) ) ;
#201 = ADVANCED_FACE ( 'NONE', ( #33 ), #59, .T. ) ;
#202 = PLANE ( 'NONE',  #209 ) ;
#203 = DIRECTION ( 'NONE',  ( -0.000000000000000000, -0.000000000000000000, -1.000000000000000000 ) ) ;
#204 =( GEOMETRIC_REPRESENTATION_CONTEXT ( 3 ) GLOBAL_UNCERTAINTY_ASSIGNED_CONTEXT ( ( #83 ) ) GLOBAL_UNIT_ASSIGNED_CONTEXT ( ( #254, #139, #137 ) ) REPRESENTATION_CONTEXT ( 'NONE', 'WORKASPACE' ) );
#205 = CARTESIAN_POINT ( 'NONE',  ( 0.000000000000000000, 0.000000000000000000, 163.0000000000000000 ) ) ;
#206 = DIRECTION ( 'NONE',  ( -0.000000000000000000, -0.000000000000000000, -1.000000000000000000 ) ) ;
#207 = DIRECTION ( 'NONE',  ( -1.000000000000000000, 0.000000000000000000, 0.000000000000000000 ) ) ;
#208 = PERSON_AND_ORGANIZATION ( #64, #218 ) ;
#209 = AXIS2_PLACEMENT_3D ( 'NONE', #79, #178, #75 ) ;
#210 = CC_DESIGN_APPROVAL ( #106, ( #53 ) ) ;
#211 = FACE_OUTER_BOUND ( 'NONE', #71, .T. ) ;
#212 = COORDINATED_UNIVERSAL_TIME_OFFSET ( 1, 0, .AHEAD. ) ;
#213 = ORIENTED_EDGE ( 'NONE', *, *, #114, .T. ) ;
#214 = ORIENTED_EDGE ( 'NONE', *, *, #280, .T. ) ;
#215 = TOROIDAL_SURFACE ( 'NONE', #250, 1.800000000000000266, 0.2000000000000000111 ) ;
#216 = EDGE_CURVE ( 'NONE', #198, #262, #39, .T. ) ;
#217 = ORIENTED_EDGE ( 'NONE', *, *, #38, .F. ) ;
#218 = ORGANIZATION ( 'NEURÈENÝ', 'NEURÈENÝ', '' ) ;
#219 = ORIENTED_EDGE ( 'NONE', *, *, #168, .T. ) ;
#220 = VERTEX_POINT ( 'NONE', #274 ) ;
#221 = CARTESIAN_POINT ( 'NONE',  ( 0.000000000000000000, 0.000000000000000000, 163.0000000000000000 ) ) ;
#222 = ORIENTED_EDGE ( 'NONE', *, *, #97, .F. ) ;
#223 = VECTOR ( 'NONE', #203, 1000.000000000000000 ) ;
#224 = AXIS2_PLACEMENT_3D ( 'NONE', #129, #102, #27 ) ;
#225 = DIRECTION ( 'NONE',  ( 1.000000000000000000, 0.000000000000000000, 0.000000000000000000 ) ) ;
#226 = CARTESIAN_POINT ( 'NONE',  ( -1.800000000000000266, 2.204364238465236069E-16, 3.000000000000004441 ) ) ;
#227 = PLANE ( 'NONE',  #258 ) ;
#228 = CIRCLE ( 'NONE', #199, 3.000000000000000444 ) ;
#229 = PRODUCT_RELATED_PRODUCT_CATEGORY ( 'detail', '', ( #179 ) ) ;
#230 = DIRECTION ( 'NONE',  ( -1.000000000000000000, 0.000000000000000000, 0.000000000000000000 ) ) ;
#231 = DIRECTION ( 'NONE',  ( 0.000000000000000000, 0.000000000000000000, 1.000000000000000000 ) ) ;
#232 = CYLINDRICAL_SURFACE ( 'NONE', #272, 3.000000000000000444 ) ;
#233 = DIRECTION ( 'NONE',  ( 0.000000000000000000, 0.000000000000000000, 1.000000000000000000 ) ) ;
#234 = PERSON_AND_ORGANIZATION ( #64, #218 ) ;
#235 = PERSON_AND_ORGANIZATION ( #64, #218 ) ;
#236 = ORIENTED_EDGE ( 'NONE', *, *, #245, .F. ) ;
#237 = CIRCLE ( 'NONE', #224, 3.000000000000000444 ) ;
#238 = APPROVAL ( #294, 'NEURÈENÝ' ) ;
#239 = EDGE_LOOP ( 'NONE', ( #50, #144 ) ) ;
#240 = ORIENTED_EDGE ( 'NONE', *, *, #245, .T. ) ;
#241 = DIRECTION ( 'NONE',  ( 0.000000000000000000, 0.000000000000000000, 1.000000000000000000 ) ) ;
#242 = CARTESIAN_POINT ( 'NONE',  ( 0.000000000000000000, 0.000000000000000000, 163.0000000000000000 ) ) ;
#243 = DIRECTION ( 'NONE',  ( 0.000000000000000000, 0.000000000000000000, -1.000000000000000000 ) ) ;
#244 = DIRECTION ( 'NONE',  ( 1.000000000000000000, 0.000000000000000000, 0.000000000000000000 ) ) ;
#245 = EDGE_CURVE ( 'NONE', #285, #220, #133, .T. ) ;
#246 = FACE_OUTER_BOUND ( 'NONE', #24, .T. ) ;
#247 = DIRECTION ( 'NONE',  ( 1.000000000000000000, 0.000000000000000000, 0.000000000000000000 ) ) ;
#248 = APPLICATION_PROTOCOL_DEFINITION ( 'international standard', 'config_control_design', 1994, #26 ) ;
#249 = CYLINDRICAL_SURFACE ( 'NONE', #120, 3.000000000000000444 ) ;
#250 = AXIS2_PLACEMENT_3D ( 'NONE', #188, #295, #34 ) ;
#251 = CARTESIAN_POINT ( 'NONE',  ( 0.000000000000000000, 0.000000000000000000, 163.0000000000000000 ) ) ;
#252 = CC_DESIGN_PERSON_AND_ORGANIZATION_ASSIGNMENT ( #86, #44, ( #302 ) ) ;
#253 = DATE_AND_TIME ( #161, #72 ) ;
#254 =( LENGTH_UNIT ( ) NAMED_UNIT ( * ) SI_UNIT ( .MILLI., .METRE. ) );
#255 = PERSON_AND_ORGANIZATION ( #64, #218 ) ;
#256 = EDGE_CURVE ( 'NONE', #194, #220, #286, .T. ) ;
#257 = EDGE_LOOP ( 'NONE', ( #46, #99 ) ) ;
#258 = AXIS2_PLACEMENT_3D ( 'NONE', #205, #12, #291 ) ;
#259 = CC_DESIGN_DATE_AND_TIME_ASSIGNMENT ( #93, #116, ( #53 ) ) ;
#260 = ORIENTED_EDGE ( 'NONE', *, *, #17, .F. ) ;
#261 = AXIS2_PLACEMENT_3D ( 'NONE', #221, #241, #30 ) ;
#262 = VERTEX_POINT ( 'NONE', #112 ) ;
#263 = CIRCLE ( 'NONE', #156, 1.800000000000000266 ) ;
#264 = DIRECTION ( 'NONE',  ( 0.000000000000000000, -1.000000000000000000, 0.000000000000000000 ) ) ;
#265 = ADVANCED_FACE ( 'NONE', ( #138 ), #227, .T. ) ;
#266 = DIRECTION ( 'NONE',  ( -0.000000000000000000, -0.000000000000000000, -1.000000000000000000 ) ) ;
#267 = ORIENTED_EDGE ( 'NONE', *, *, #280, .F. ) ;
#268 = DIRECTION ( 'NONE',  ( -0.000000000000000000, -0.000000000000000000, -1.000000000000000000 ) ) ;
#269 = DIRECTION ( 'NONE',  ( 1.000000000000000000, 0.000000000000000000, 0.000000000000000000 ) ) ;
#270 = PERSON_AND_ORGANIZATION ( #64, #218 ) ;
#271 = CARTESIAN_POINT ( 'NONE',  ( 0.000000000000000000, 0.000000000000000000, 3.200000000000008171 ) ) ;
#272 = AXIS2_PLACEMENT_3D ( 'NONE', #13, #268, #115 ) ;
#273 = APPROVAL_STATUS ( 'not_yet_approved' ) ;
#274 = CARTESIAN_POINT ( 'NONE',  ( 1.600000000000000089, 1.959434878635765230E-16, 3.200000000000008171 ) ) ;
#275 = MECHANICAL_CONTEXT ( 'NONE', #26, 'mechanical' ) ;
#276 = CARTESIAN_POINT ( 'NONE',  ( -1.600000000000000089, 0.000000000000000000, 3.200000000000008171 ) ) ;
#277 = CALENDAR_DATE ( 2022, 7, 7 ) ;
#278 = ORIENTED_EDGE ( 'NONE', *, *, #17, .T. ) ;
#279 = PERSON_AND_ORGANIZATION_ROLE ( 'classification_officer' ) ;
#280 = EDGE_CURVE ( 'NONE', #194, #118, #130, .T. ) ;
#281 = LOCAL_TIME ( 14, 54, 11.00000000000000000, #111 ) ;
#282 = CC_DESIGN_PERSON_AND_ORGANIZATION_ASSIGNMENT ( #255, #68, ( #56 ) ) ;
#283 = DIRECTION ( 'NONE',  ( 1.000000000000000000, 0.000000000000000000, 0.000000000000000000 ) ) ;
#284 = FACE_OUTER_BOUND ( 'NONE', #239, .T. ) ;
#285 = VERTEX_POINT ( 'NONE', #165 ) ;
#286 = CIRCLE ( 'NONE', #88, 1.600000000000000089 ) ;
#287 = ADVANCED_FACE ( 'NONE', ( #160 ), #249, .T. ) ;
#288 = LINE ( 'NONE', #78, #135 ) ;
#289 = ORIENTED_EDGE ( 'NONE', *, *, #74, .F. ) ;
#290 = CARTESIAN_POINT ( 'NONE',  ( 0.000000000000000000, 0.000000000000000000, 3.200000000000008171 ) ) ;
#291 = DIRECTION ( 'NONE',  ( 1.000000000000000000, 0.000000000000000000, -0.000000000000000000 ) ) ;
#292 = APPROVAL_ROLE ( '' ) ;
#293 = DIRECTION ( 'NONE',  ( 0.000000000000000000, 0.000000000000000000, 1.000000000000000000 ) ) ;
#294 = APPROVAL_STATUS ( 'not_yet_approved' ) ;
#295 = DIRECTION ( 'NONE',  ( 0.000000000000000000, 0.000000000000000000, 1.000000000000000000 ) ) ;
#296 = AXIS2_PLACEMENT_3D ( 'NONE', #87, #81, #60 ) ;
#297 = DIRECTION ( 'NONE',  ( -0.000000000000000000, -0.000000000000000000, -1.000000000000000000 ) ) ;
#298 = APPROVAL_ROLE ( '' ) ;
#299 = ORIENTED_EDGE ( 'NONE', *, *, #2, .F. ) ;
#300 = CALENDAR_DATE ( 2022, 7, 7 ) ;
#301 = EDGE_CURVE ( 'NONE', #100, #198, #31, .T. ) ;
#302 = PRODUCT_DEFINITION_FORMATION_WITH_SPECIFIED_SOURCE ( 'LIBOVOLNÝ', '', #179, .NOT_KNOWN. ) ;
#303 = AXIS2_PLACEMENT_3D ( 'NONE', #57, #266, #244 ) ;
#304 = ORIENTED_EDGE ( 'NONE', *, *, #103, .F. ) ;
#305 = CC_DESIGN_PERSON_AND_ORGANIZATION_ASSIGNMENT ( #270, #117, ( #302 ) ) ;
#306 = DIRECTION ( 'NONE',  ( 0.000000000000000000, 0.000000000000000000, 1.000000000000000000 ) ) ;
#307 = ORIENTED_EDGE ( 'NONE', *, *, #103, .T. ) ;
ENDSEC;
END-ISO-10303-21;
