ISO-10303-21;
HEADER;
FILE_DESCRIPTION (( 'STEP AP203' ),
    '1' );
FILE_NAME ('a3c1.STEP',
    '2022-07-07T12:18:09',
    ( '' ),
    ( '' ),
    'SwSTEP 2.0',
    'SolidWorks 2019',
    '' );
FILE_SCHEMA (( 'CONFIG_CONTROL_DESIGN' ));
ENDSEC;

DATA;
#1 = AXIS2_PLACEMENT_3D ( 'NONE', #164, #41, #180 ) ;
#2 = CARTESIAN_POINT ( 'NONE',  ( -13.00000000000000178, 0.000000000000000000, 8.000000000000000000 ) ) ;
#3 = PERSON_AND_ORGANIZATION ( #182, #75 ) ;
#4 = EDGE_CURVE ( 'NONE', #252, #87, #123, .T. ) ;
#5 = APPROVAL_ROLE ( '' ) ;
#6 = LOCAL_TIME ( 14, 18, 9.000000000000000000, #179 ) ;
#7 = APPROVAL_STATUS ( 'not_yet_approved' ) ;
#8 = DIRECTION ( 'NONE',  ( 1.000000000000000000, 0.000000000000000000, 0.000000000000000000 ) ) ;
#9 = ORIENTED_EDGE ( 'NONE', *, *, #4, .F. ) ;
#10 = ORIENTED_EDGE ( 'NONE', *, *, #166, .F. ) ;
#11 = CARTESIAN_POINT ( 'NONE',  ( 13.00000000000000178, 1.592040838891559293E-15, 8.000000000000000000 ) ) ;
#12 = EDGE_LOOP ( 'NONE', ( #272, #204, #137, #15 ) ) ;
#13 = EDGE_CURVE ( 'NONE', #183, #65, #265, .T. ) ;
#14 = VERTEX_POINT ( 'NONE', #11 ) ;
#15 = ORIENTED_EDGE ( 'NONE', *, *, #253, .F. ) ;
#16 = DESIGN_CONTEXT ( 'detailed design', #135, 'design' ) ;
#17 = CARTESIAN_POINT ( 'NONE',  ( -10.20000000000000107, 1.249139735130300365E-15, 8.200000000000013500 ) ) ;
#18 = FACE_OUTER_BOUND ( 'NONE', #42, .T. ) ;
#19 =( NAMED_UNIT ( * ) PLANE_ANGLE_UNIT ( ) SI_UNIT ( $, .RADIAN. ) );
#20 = DIRECTION ( 'NONE',  ( -1.000000000000000000, 0.000000000000000000, 0.000000000000000000 ) ) ;
#21 = AXIS2_PLACEMENT_3D ( 'NONE', #45, #232, #111 ) ;
#22 = DIRECTION ( 'NONE',  ( 1.000000000000000000, 0.000000000000000000, -0.000000000000000000 ) ) ;
#23 = AXIS2_PLACEMENT_3D ( 'NONE', #47, #236, #27 ) ;
#24 = DIRECTION ( 'NONE',  ( -1.000000000000000000, 0.000000000000000000, 0.000000000000000000 ) ) ;
#25 = PLANE ( 'NONE',  #283 ) ;
#26 = EDGE_CURVE ( 'NONE', #244, #271, #132, .T. ) ;
#27 = DIRECTION ( 'NONE',  ( 1.000000000000000000, 0.000000000000000000, -0.000000000000000000 ) ) ;
#28 = CARTESIAN_POINT ( 'NONE',  ( 10.00000000000000000, 1.224646799147353256E-15, 258.0000000000000000 ) ) ;
#29 = CIRCLE ( 'NONE', #286, 0.2000000000000005107 ) ;
#30 = PERSON_AND_ORGANIZATION_ROLE ( 'classification_officer' ) ;
#31 = EDGE_CURVE ( 'NONE', #61, #14, #115, .T. ) ;
#32 = PERSON_AND_ORGANIZATION_ROLE ( 'creator' ) ;
#33 = PERSON_AND_ORGANIZATION ( #182, #75 ) ;
#34 = ORIENTED_EDGE ( 'NONE', *, *, #166, .T. ) ;
#35 = ORIENTED_EDGE ( 'NONE', *, *, #225, .F. ) ;
#36 = PRODUCT ( 'a3c1', 'a3c1', '', ( #54 ) ) ;
#37 = ORIENTED_EDGE ( 'NONE', *, *, #31, .F. ) ;
#38 = AXIS2_PLACEMENT_3D ( 'NONE', #187, #97, #274 ) ;
#39 = VECTOR ( 'NONE', #216, 1000.000000000000000 ) ;
#40 = EDGE_CURVE ( 'NONE', #271, #244, #83, .T. ) ;
#41 = DIRECTION ( 'NONE',  ( 0.000000000000000000, 0.000000000000000000, 1.000000000000000000 ) ) ;
#42 = EDGE_LOOP ( 'NONE', ( #270, #37, #104, #228 ) ) ;
#43 = DIRECTION ( 'NONE',  ( -0.000000000000000000, -0.000000000000000000, -1.000000000000000000 ) ) ;
#44 = DIRECTION ( 'NONE',  ( 0.000000000000000000, 0.000000000000000000, 1.000000000000000000 ) ) ;
#45 = CARTESIAN_POINT ( 'NONE',  ( 0.000000000000000000, 0.000000000000000000, 8.000000000000000000 ) ) ;
#46 = CARTESIAN_POINT ( 'NONE',  ( -10.00000000000000000, 0.000000000000000000, 8.200000000000013500 ) ) ;
#47 = CARTESIAN_POINT ( 'NONE',  ( 0.000000000000000000, 0.000000000000000000, 8.000000000000000000 ) ) ;
#48 = APPROVAL_PERSON_ORGANIZATION ( #263, #258, #222 ) ;
#49 = DIRECTION ( 'NONE',  ( -0.000000000000000000, -0.000000000000000000, -1.000000000000000000 ) ) ;
#50 = ADVANCED_FACE ( 'NONE', ( #173 ), #191, .T. ) ;
#51 = CARTESIAN_POINT ( 'NONE',  ( 0.000000000000000000, 0.000000000000000000, 8.000000000000000000 ) ) ;
#52 = ADVANCED_FACE ( 'NONE', ( #298 ), #121, .F. ) ;
#53 = TOROIDAL_SURFACE ( 'NONE', #77, 10.20000000000000107, 0.2000000000000000111 ) ;
#54 = MECHANICAL_CONTEXT ( 'NONE', #245, 'mechanical' ) ;
#55 = DATE_AND_TIME ( #267, #84 ) ;
#56 = APPROVAL_STATUS ( 'not_yet_approved' ) ;
#57 = CARTESIAN_POINT ( 'NONE',  ( 0.000000000000000000, 0.000000000000000000, 0.000000000000000000 ) ) ;
#58 = CC_DESIGN_APPROVAL ( #139, ( #195 ) ) ;
#59 = SECURITY_CLASSIFICATION_LEVEL ( 'unclassified' ) ;
#60 = ORIENTED_EDGE ( 'NONE', *, *, #269, .T. ) ;
#61 = VERTEX_POINT ( 'NONE', #281 ) ;
#62 = ORIENTED_EDGE ( 'NONE', *, *, #31, .T. ) ;
#63 = EDGE_LOOP ( 'NONE', ( #201, #10, #136, #138 ) ) ;
#64 = SECURITY_CLASSIFICATION ( '', '', #59 ) ;
#65 = VERTEX_POINT ( 'NONE', #211 ) ;
#66 = CARTESIAN_POINT ( 'NONE',  ( 0.000000000000000000, 0.000000000000000000, 8.000000000000000000 ) ) ;
#67 = CIRCLE ( 'NONE', #235, 10.20000000000000107 ) ;
#68 = DIRECTION ( 'NONE',  ( 0.000000000000000000, 0.000000000000000000, 1.000000000000000000 ) ) ;
#69 = DIRECTION ( 'NONE',  ( 0.000000000000000000, 0.000000000000000000, 1.000000000000000000 ) ) ;
#70 = CARTESIAN_POINT ( 'NONE',  ( 10.20000000000000107, 0.000000000000000000, 8.200000000000013500 ) ) ;
#71 = FACE_OUTER_BOUND ( 'NONE', #159, .T. ) ;
#72 = DIRECTION ( 'NONE',  ( 0.000000000000000000, 0.000000000000000000, -1.000000000000000000 ) ) ;
#73 = ADVANCED_FACE ( 'NONE', ( #74 ), #53, .F. ) ;
#74 = FACE_OUTER_BOUND ( 'NONE', #131, .T. ) ;
#75 = ORGANIZATION ( 'NEURÈENÝ', 'NEURÈENÝ', '' ) ;
#76 = LINE ( 'NONE', #2, #155 ) ;
#77 = AXIS2_PLACEMENT_3D ( 'NONE', #230, #213, #303 ) ;
#78 = AXIS2_PLACEMENT_3D ( 'NONE', #113, #280, #194 ) ;
#79 = PERSON_AND_ORGANIZATION ( #182, #75 ) ;
#80 = APPROVAL_DATE_TIME ( #290, #258 ) ;
#81 = CC_DESIGN_PERSON_AND_ORGANIZATION_ASSIGNMENT ( #33, #125, ( #36 ) ) ;
#82 = PERSON_AND_ORGANIZATION_ROLE ( 'creator' ) ;
#83 = CIRCLE ( 'NONE', #234, 13.00000000000000178 ) ;
#84 = LOCAL_TIME ( 14, 18, 9.000000000000000000, #103 ) ;
#85 = ORIENTED_EDGE ( 'NONE', *, *, #288, .T. ) ;
#86 = PRODUCT_DEFINITION_SHAPE ( 'NONE', 'NONE',  #195 ) ;
#87 = VERTEX_POINT ( 'NONE', #93 ) ;
#88 = CC_DESIGN_PERSON_AND_ORGANIZATION_ASSIGNMENT ( #241, #101, ( #249 ) ) ;
#89 = ORIENTED_EDGE ( 'NONE', *, *, #269, .F. ) ;
#90 = ORIENTED_EDGE ( 'NONE', *, *, #127, .F. ) ;
#91 = CC_DESIGN_APPROVAL ( #177, ( #249 ) ) ;
#92 = CARTESIAN_POINT ( 'NONE',  ( 0.000000000000000000, 0.000000000000000000, 8.200000000000013500 ) ) ;
#93 = CARTESIAN_POINT ( 'NONE',  ( 10.00000000000000000, 1.224646799147353256E-15, 8.200000000000013500 ) ) ;
#94 = DIRECTION ( 'NONE',  ( -0.000000000000000000, -0.000000000000000000, -1.000000000000000000 ) ) ;
#95 = CYLINDRICAL_SURFACE ( 'NONE', #38, 10.00000000000000000 ) ;
#96 =( NAMED_UNIT ( * ) SI_UNIT ( $, .STERADIAN. ) SOLID_ANGLE_UNIT ( ) );
#97 = DIRECTION ( 'NONE',  ( -0.000000000000000000, -0.000000000000000000, -1.000000000000000000 ) ) ;
#98 = DIRECTION ( 'NONE',  ( 0.000000000000000000, 0.000000000000000000, 1.000000000000000000 ) ) ;
#99 = FACE_OUTER_BOUND ( 'NONE', #295, .T. ) ;
#100 = DATE_TIME_ROLE ( 'classification_date' ) ;
#101 = PERSON_AND_ORGANIZATION_ROLE ( 'design_supplier' ) ;
#102 = ADVANCED_FACE ( 'NONE', ( #189 ), #95, .T. ) ;
#103 = COORDINATED_UNIVERSAL_TIME_OFFSET ( 1, 0, .AHEAD. ) ;
#104 = ORIENTED_EDGE ( 'NONE', *, *, #253, .T. ) ;
#105 = AXIS2_PLACEMENT_3D ( 'NONE', #57, #262, #8 ) ;
#106 = EDGE_CURVE ( 'NONE', #252, #226, #29, .T. ) ;
#107 = DIRECTION ( 'NONE',  ( 0.000000000000000000, 0.000000000000000000, 1.000000000000000000 ) ) ;
#108 = CARTESIAN_POINT ( 'NONE',  ( 0.000000000000000000, 0.000000000000000000, 0.000000000000000000 ) ) ;
#109 = EDGE_LOOP ( 'NONE', ( #205, #60 ) ) ;
#110 = ADVANCED_FACE ( 'NONE', ( #18 ), #112, .T. ) ;
#111 = DIRECTION ( 'NONE',  ( -1.000000000000000000, 0.000000000000000000, 0.000000000000000000 ) ) ;
#112 = CYLINDRICAL_SURFACE ( 'NONE', #21, 13.00000000000000178 ) ;
#113 = CARTESIAN_POINT ( 'NONE',  ( 0.000000000000000000, 0.000000000000000000, 8.000000000000000000 ) ) ;
#114 = CC_DESIGN_PERSON_AND_ORGANIZATION_ASSIGNMENT ( #178, #30, ( #64 ) ) ;
#115 = CIRCLE ( 'NONE', #150, 13.00000000000000178 ) ;
#116 = AXIS2_PLACEMENT_3D ( 'NONE', #167, #43, #24 ) ;
#117 = CARTESIAN_POINT ( 'NONE',  ( 0.000000000000000000, 0.000000000000000000, 8.000000000000000000 ) ) ;
#118 = CARTESIAN_POINT ( 'NONE',  ( 0.000000000000000000, 0.000000000000000000, 8.200000000000013500 ) ) ;
#119 = CARTESIAN_POINT ( 'NONE',  ( 0.000000000000000000, 0.000000000000000000, 258.0000000000000000 ) ) ;
#120 = DIRECTION ( 'NONE',  ( 0.000000000000000000, 0.000000000000000000, 1.000000000000000000 ) ) ;
#121 = TOROIDAL_SURFACE ( 'NONE', #301, 10.20000000000000107, 0.2000000000000000111 ) ;
#122 = CARTESIAN_POINT ( 'NONE',  ( -10.00000000000000000, 0.000000000000000000, 258.0000000000000000 ) ) ;
#123 = CIRCLE ( 'NONE', #1, 10.00000000000000000 ) ;
#124 = MANIFOLD_SOLID_BREP ( 'Zaoblit1', #248 ) ;
#125 = PERSON_AND_ORGANIZATION_ROLE ( 'design_owner' ) ;
#126 = APPROVAL_ROLE ( '' ) ;
#127 = EDGE_CURVE ( 'NONE', #87, #252, #160, .T. ) ;
#128 = CALENDAR_DATE ( 2022, 7, 7 ) ;
#129 = DATE_TIME_ROLE ( 'creation_date' ) ;
#130 = ORIENTED_EDGE ( 'NONE', *, *, #127, .T. ) ;
#131 = EDGE_LOOP ( 'NONE', ( #9, #292, #186, #35 ) ) ;
#132 = CIRCLE ( 'NONE', #215, 13.00000000000000178 ) ;
#133 =( GEOMETRIC_REPRESENTATION_CONTEXT ( 3 ) GLOBAL_UNCERTAINTY_ASSIGNED_CONTEXT ( ( #206 ) ) GLOBAL_UNIT_ASSIGNED_CONTEXT ( ( #305, #19, #96 ) ) REPRESENTATION_CONTEXT ( 'NONE', 'WORKASPACE' ) );
#134 = DIRECTION ( 'NONE',  ( 1.000000000000000000, 0.000000000000000000, 0.000000000000000000 ) ) ;
#135 = APPLICATION_CONTEXT ( 'configuration controlled 3d designs of mechanical parts and assemblies' ) ;
#136 = ORIENTED_EDGE ( 'NONE', *, *, #212, .T. ) ;
#137 = ORIENTED_EDGE ( 'NONE', *, *, #26, .T. ) ;
#138 = ORIENTED_EDGE ( 'NONE', *, *, #4, .T. ) ;
#139 = APPROVAL ( #220, 'NEURÈENÝ' ) ;
#140 = CC_DESIGN_APPROVAL ( #258, ( #64 ) ) ;
#141 = ADVANCED_BREP_SHAPE_REPRESENTATION ( 'a3c1', ( #124, #105 ), #133 ) ;
#142 = DIRECTION ( 'NONE',  ( 1.000000000000000000, 0.000000000000000000, 0.000000000000000000 ) ) ;
#143 = CC_DESIGN_PERSON_AND_ORGANIZATION_ASSIGNMENT ( #79, #82, ( #249 ) ) ;
#144 = FACE_BOUND ( 'NONE', #109, .T. ) ;
#145 = CARTESIAN_POINT ( 'NONE',  ( 10.20000000000000107, 0.000000000000000000, 8.000000000000007105 ) ) ;
#146 = AXIS2_PLACEMENT_3D ( 'NONE', #92, #165, #277 ) ;
#147 = LOCAL_TIME ( 14, 18, 9.000000000000000000, #218 ) ;
#148 = DIRECTION ( 'NONE',  ( 1.000000000000000000, 0.000000000000000000, 0.000000000000000000 ) ) ;
#149 = LINE ( 'NONE', #306, #172 ) ;
#150 = AXIS2_PLACEMENT_3D ( 'NONE', #66, #69, #275 ) ;
#151 = APPLICATION_PROTOCOL_DEFINITION ( 'international standard', 'config_control_design', 1994, #245 ) ;
#152 = APPROVAL_DATE_TIME ( #55, #177 ) ;
#153 = EDGE_CURVE ( 'NONE', #183, #87, #168, .T. ) ;
#154 = DATE_AND_TIME ( #289, #147 ) ;
#155 = VECTOR ( 'NONE', #49, 1000.000000000000000 ) ;
#156 = DATE_AND_TIME ( #217, #6 ) ;
#157 = COORDINATED_UNIVERSAL_TIME_OFFSET ( 1, 0, .AHEAD. ) ;
#158 = ORIENTED_EDGE ( 'NONE', *, *, #40, .F. ) ;
#159 = EDGE_LOOP ( 'NONE', ( #62, #85 ) ) ;
#160 = CIRCLE ( 'NONE', #146, 10.00000000000000000 ) ;
#161 = LOCAL_TIME ( 14, 18, 9.000000000000000000, #157 ) ;
#162 = ORIENTED_EDGE ( 'NONE', *, *, #153, .T. ) ;
#163 = ADVANCED_FACE ( 'NONE', ( #256 ), #254, .T. ) ;
#164 = CARTESIAN_POINT ( 'NONE',  ( 0.000000000000000000, 0.000000000000000000, 8.200000000000013500 ) ) ;
#165 = DIRECTION ( 'NONE',  ( 0.000000000000000000, 0.000000000000000000, 1.000000000000000000 ) ) ;
#166 = EDGE_CURVE ( 'NONE', #65, #183, #229, .T. ) ;
#167 = CARTESIAN_POINT ( 'NONE',  ( 0.000000000000000000, 0.000000000000000000, 8.000000000000000000 ) ) ;
#168 = LINE ( 'NONE', #193, #266 ) ;
#169 = CARTESIAN_POINT ( 'NONE',  ( -13.00000000000000178, 0.000000000000000000, 0.000000000000000000 ) ) ;
#170 = PLANE ( 'NONE',  #23 ) ;
#171 = CARTESIAN_POINT ( 'NONE',  ( -10.20000000000000107, 1.249139735130300365E-15, 8.000000000000007105 ) ) ;
#172 = VECTOR ( 'NONE', #260, 1000.000000000000000 ) ;
#173 = FACE_OUTER_BOUND ( 'NONE', #247, .T. ) ;
#174 = ADVANCED_FACE ( 'NONE', ( #144, #71 ), #170, .T. ) ;
#175 = CALENDAR_DATE ( 2022, 7, 7 ) ;
#176 = CIRCLE ( 'NONE', #210, 0.2000000000000005107 ) ;
#177 = APPROVAL ( #7, 'NEURÈENÝ' ) ;
#178 = PERSON_AND_ORGANIZATION ( #182, #75 ) ;
#179 = COORDINATED_UNIVERSAL_TIME_OFFSET ( 1, 0, .AHEAD. ) ;
#180 = DIRECTION ( 'NONE',  ( 1.000000000000000000, 0.000000000000000000, 0.000000000000000000 ) ) ;
#181 = EDGE_LOOP ( 'NONE', ( #251, #90, #273, #89 ) ) ;
#182 = PERSON ( 'NEURÈENÝ', 'NEURÈENÝ', 'NEURÈENÝ', ('NEURÈENÝ'), ('NEURÈENÝ'), ('NEURÈENÝ') ) ;
#183 = VERTEX_POINT ( 'NONE', #28 ) ;
#184 = AXIS2_PLACEMENT_3D ( 'NONE', #51, #237, #278 ) ;
#185 = DIRECTION ( 'NONE',  ( 0.000000000000000000, 0.000000000000000000, 1.000000000000000000 ) ) ;
#186 = ORIENTED_EDGE ( 'NONE', *, *, #197, .F. ) ;
#187 = CARTESIAN_POINT ( 'NONE',  ( 0.000000000000000000, 0.000000000000000000, 258.0000000000000000 ) ) ;
#188 = CARTESIAN_POINT ( 'NONE',  ( 0.000000000000000000, 0.000000000000000000, 258.0000000000000000 ) ) ;
#189 = FACE_OUTER_BOUND ( 'NONE', #63, .T. ) ;
#190 = DIRECTION ( 'NONE',  ( 1.000000000000000000, 0.000000000000000000, -0.000000000000000000 ) ) ;
#191 = CYLINDRICAL_SURFACE ( 'NONE', #293, 10.00000000000000000 ) ;
#192 = PLANE ( 'NONE',  #202 ) ;
#193 = CARTESIAN_POINT ( 'NONE',  ( 10.00000000000000000, 1.224646799147353256E-15, 258.0000000000000000 ) ) ;
#194 = DIRECTION ( 'NONE',  ( 1.000000000000000000, 0.000000000000000000, 0.000000000000000000 ) ) ;
#195 = PRODUCT_DEFINITION ( 'NEZNÁMÝ', '', #249, #16 ) ;
#196 = APPROVAL_PERSON_ORGANIZATION ( #240, #139, #126 ) ;
#197 = EDGE_CURVE ( 'NONE', #294, #226, #287, .T. ) ;
#198 = COORDINATED_UNIVERSAL_TIME_OFFSET ( 1, 0, .AHEAD. ) ;
#199 = DATE_AND_TIME ( #175, #161 ) ;
#200 = APPLICATION_PROTOCOL_DEFINITION ( 'international standard', 'config_control_design', 1994, #135 ) ;
#201 = ORIENTED_EDGE ( 'NONE', *, *, #153, .F. ) ;
#202 = AXIS2_PLACEMENT_3D ( 'NONE', #214, #98, #190 ) ;
#203 = ORIENTED_EDGE ( 'NONE', *, *, #13, .T. ) ;
#204 = ORIENTED_EDGE ( 'NONE', *, *, #221, .T. ) ;
#205 = ORIENTED_EDGE ( 'NONE', *, *, #197, .T. ) ;
#206 = UNCERTAINTY_MEASURE_WITH_UNIT (LENGTH_MEASURE( 1.000000000000000082E-05 ), #305, 'distance_accuracy_value', 'NONE');
#207 = DIRECTION ( 'NONE',  ( -0.000000000000000000, -0.000000000000000000, -1.000000000000000000 ) ) ;
#208 = DIRECTION ( 'NONE',  ( -0.000000000000000000, -0.000000000000000000, -1.000000000000000000 ) ) ;
#209 = AXIS2_PLACEMENT_3D ( 'NONE', #268, #107, #134 ) ;
#210 = AXIS2_PLACEMENT_3D ( 'NONE', #70, #302, #72 ) ;
#211 = CARTESIAN_POINT ( 'NONE',  ( -10.00000000000000000, 0.000000000000000000, 258.0000000000000000 ) ) ;
#212 = EDGE_CURVE ( 'NONE', #65, #252, #284, .T. ) ;
#213 = DIRECTION ( 'NONE',  ( 0.000000000000000000, 0.000000000000000000, 1.000000000000000000 ) ) ;
#214 = CARTESIAN_POINT ( 'NONE',  ( 0.000000000000000000, 0.000000000000000000, 0.000000000000000000 ) ) ;
#215 = AXIS2_PLACEMENT_3D ( 'NONE', #108, #185, #250 ) ;
#216 = DIRECTION ( 'NONE',  ( -0.000000000000000000, -0.000000000000000000, -1.000000000000000000 ) ) ;
#217 = CALENDAR_DATE ( 2022, 7, 7 ) ;
#218 = COORDINATED_UNIVERSAL_TIME_OFFSET ( 1, 0, .AHEAD. ) ;
#219 = AXIS2_PLACEMENT_3D ( 'NONE', #255, #44, #142 ) ;
#220 = APPROVAL_STATUS ( 'not_yet_approved' ) ;
#221 = EDGE_CURVE ( 'NONE', #14, #244, #149, .T. ) ;
#222 = APPROVAL_ROLE ( '' ) ;
#223 = ORIENTED_EDGE ( 'NONE', *, *, #212, .F. ) ;
#224 = ORIENTED_EDGE ( 'NONE', *, *, #26, .F. ) ;
#225 = EDGE_CURVE ( 'NONE', #87, #294, #176, .T. ) ;
#226 = VERTEX_POINT ( 'NONE', #171 ) ;
#227 = EDGE_LOOP ( 'NONE', ( #158, #224 ) ) ;
#228 = ORIENTED_EDGE ( 'NONE', *, *, #40, .T. ) ;
#229 = CIRCLE ( 'NONE', #219, 10.00000000000000000 ) ;
#230 = CARTESIAN_POINT ( 'NONE',  ( 0.000000000000000000, 0.000000000000000000, 8.200000000000013500 ) ) ;
#231 = CARTESIAN_POINT ( 'NONE',  ( 0.000000000000000000, 0.000000000000000000, 0.000000000000000000 ) ) ;
#232 = DIRECTION ( 'NONE',  ( -0.000000000000000000, -0.000000000000000000, -1.000000000000000000 ) ) ;
#233 = CARTESIAN_POINT ( 'NONE',  ( 13.00000000000000178, 1.592040838891559293E-15, 0.000000000000000000 ) ) ;
#234 = AXIS2_PLACEMENT_3D ( 'NONE', #231, #300, #148 ) ;
#235 = AXIS2_PLACEMENT_3D ( 'NONE', #117, #94, #282 ) ;
#236 = DIRECTION ( 'NONE',  ( 0.000000000000000000, 0.000000000000000000, 1.000000000000000000 ) ) ;
#237 = DIRECTION ( 'NONE',  ( 0.000000000000000000, 0.000000000000000000, 1.000000000000000000 ) ) ;
#238 = PRODUCT_RELATED_PRODUCT_CATEGORY ( 'detail', '', ( #36 ) ) ;
#239 = CIRCLE ( 'NONE', #184, 13.00000000000000178 ) ;
#240 = PERSON_AND_ORGANIZATION ( #182, #75 ) ;
#241 = PERSON_AND_ORGANIZATION ( #182, #75 ) ;
#242 = CC_DESIGN_SECURITY_CLASSIFICATION ( #64, ( #249 ) ) ;
#243 = APPROVAL_DATE_TIME ( #156, #139 ) ;
#244 = VERTEX_POINT ( 'NONE', #233 ) ;
#245 = APPLICATION_CONTEXT ( 'configuration controlled 3d designs of mechanical parts and assemblies' ) ;
#246 = CC_DESIGN_DATE_AND_TIME_ASSIGNMENT ( #154, #129, ( #195 ) ) ;
#247 = EDGE_LOOP ( 'NONE', ( #296, #162, #130, #223 ) ) ;
#248 = CLOSED_SHELL ( 'NONE', ( #73, #50, #163, #110, #174, #264, #102, #297, #52 ) ) ;
#249 = PRODUCT_DEFINITION_FORMATION_WITH_SPECIFIED_SOURCE ( 'LIBOVOLNÝ', '', #36, .NOT_KNOWN. ) ;
#250 = DIRECTION ( 'NONE',  ( 1.000000000000000000, 0.000000000000000000, 0.000000000000000000 ) ) ;
#251 = ORIENTED_EDGE ( 'NONE', *, *, #106, .F. ) ;
#252 = VERTEX_POINT ( 'NONE', #46 ) ;
#253 = EDGE_CURVE ( 'NONE', #61, #271, #76, .T. ) ;
#254 = CYLINDRICAL_SURFACE ( 'NONE', #116, 13.00000000000000178 ) ;
#255 = CARTESIAN_POINT ( 'NONE',  ( 0.000000000000000000, 0.000000000000000000, 258.0000000000000000 ) ) ;
#256 = FACE_OUTER_BOUND ( 'NONE', #12, .T. ) ;
#257 = CC_DESIGN_DATE_AND_TIME_ASSIGNMENT ( #199, #100, ( #64 ) ) ;
#258 = APPROVAL ( #56, 'NEURÈENÝ' ) ;
#259 = DIRECTION ( 'NONE',  ( 1.000000000000000000, 0.000000000000000000, 0.000000000000000000 ) ) ;
#260 = DIRECTION ( 'NONE',  ( -0.000000000000000000, -0.000000000000000000, -1.000000000000000000 ) ) ;
#261 = FACE_OUTER_BOUND ( 'NONE', #227, .T. ) ;
#262 = DIRECTION ( 'NONE',  ( 0.000000000000000000, 0.000000000000000000, 1.000000000000000000 ) ) ;
#263 = PERSON_AND_ORGANIZATION ( #182, #75 ) ;
#264 = ADVANCED_FACE ( 'NONE', ( #261 ), #192, .F. ) ;
#265 = CIRCLE ( 'NONE', #209, 10.00000000000000000 ) ;
#266 = VECTOR ( 'NONE', #208, 1000.000000000000000 ) ;
#267 = CALENDAR_DATE ( 2022, 7, 7 ) ;
#268 = CARTESIAN_POINT ( 'NONE',  ( 0.000000000000000000, 0.000000000000000000, 258.0000000000000000 ) ) ;
#269 = EDGE_CURVE ( 'NONE', #226, #294, #67, .T. ) ;
#270 = ORIENTED_EDGE ( 'NONE', *, *, #221, .F. ) ;
#271 = VERTEX_POINT ( 'NONE', #169 ) ;
#272 = ORIENTED_EDGE ( 'NONE', *, *, #288, .F. ) ;
#273 = ORIENTED_EDGE ( 'NONE', *, *, #225, .T. ) ;
#274 = DIRECTION ( 'NONE',  ( -1.000000000000000000, 0.000000000000000000, 0.000000000000000000 ) ) ;
#275 = DIRECTION ( 'NONE',  ( 1.000000000000000000, 0.000000000000000000, 0.000000000000000000 ) ) ;
#276 = LOCAL_TIME ( 14, 18, 9.000000000000000000, #198 ) ;
#277 = DIRECTION ( 'NONE',  ( 1.000000000000000000, 0.000000000000000000, 0.000000000000000000 ) ) ;
#278 = DIRECTION ( 'NONE',  ( 1.000000000000000000, 0.000000000000000000, 0.000000000000000000 ) ) ;
#279 = DIRECTION ( 'NONE',  ( 1.224646799147353207E-16, 1.000000000000000000, -0.000000000000000000 ) ) ;
#280 = DIRECTION ( 'NONE',  ( -0.000000000000000000, -0.000000000000000000, -1.000000000000000000 ) ) ;
#281 = CARTESIAN_POINT ( 'NONE',  ( -13.00000000000000178, 0.000000000000000000, 8.000000000000000000 ) ) ;
#282 = DIRECTION ( 'NONE',  ( 1.000000000000000000, 0.000000000000000000, 0.000000000000000000 ) ) ;
#283 = AXIS2_PLACEMENT_3D ( 'NONE', #119, #120, #22 ) ;
#284 = LINE ( 'NONE', #122, #39 ) ;
#285 = SHAPE_DEFINITION_REPRESENTATION ( #86, #141 ) ;
#286 = AXIS2_PLACEMENT_3D ( 'NONE', #17, #279, #304 ) ;
#287 = CIRCLE ( 'NONE', #78, 10.20000000000000107 ) ;
#288 = EDGE_CURVE ( 'NONE', #14, #61, #239, .T. ) ;
#289 = CALENDAR_DATE ( 2022, 7, 7 ) ;
#290 = DATE_AND_TIME ( #128, #276 ) ;
#291 = PERSON_AND_ORGANIZATION ( #182, #75 ) ;
#292 = ORIENTED_EDGE ( 'NONE', *, *, #106, .T. ) ;
#293 = AXIS2_PLACEMENT_3D ( 'NONE', #188, #207, #20 ) ;
#294 = VERTEX_POINT ( 'NONE', #145 ) ;
#295 = EDGE_LOOP ( 'NONE', ( #34, #203 ) ) ;
#296 = ORIENTED_EDGE ( 'NONE', *, *, #13, .F. ) ;
#297 = ADVANCED_FACE ( 'NONE', ( #99 ), #25, .T. ) ;
#298 = FACE_OUTER_BOUND ( 'NONE', #181, .T. ) ;
#299 = CC_DESIGN_PERSON_AND_ORGANIZATION_ASSIGNMENT ( #291, #32, ( #195 ) ) ;
#300 = DIRECTION ( 'NONE',  ( 0.000000000000000000, 0.000000000000000000, 1.000000000000000000 ) ) ;
#301 = AXIS2_PLACEMENT_3D ( 'NONE', #118, #68, #259 ) ;
#302 = DIRECTION ( 'NONE',  ( 0.000000000000000000, -1.000000000000000000, 0.000000000000000000 ) ) ;
#303 = DIRECTION ( 'NONE',  ( 1.000000000000000000, 0.000000000000000000, 0.000000000000000000 ) ) ;
#304 = DIRECTION ( 'NONE',  ( -1.000000000000000000, 1.224646799147353207E-16, 0.000000000000000000 ) ) ;
#305 =( LENGTH_UNIT ( ) NAMED_UNIT ( * ) SI_UNIT ( .MILLI., .METRE. ) );
#306 = CARTESIAN_POINT ( 'NONE',  ( 13.00000000000000178, 1.592040838891559293E-15, 8.000000000000000000 ) ) ;
#307 = APPROVAL_PERSON_ORGANIZATION ( #3, #177, #5 ) ;
ENDSEC;
END-ISO-10303-21;
