ISO-10303-21;
HEADER;
FILE_DESCRIPTION (( 'STEP AP203' ),
    '1' );
FILE_NAME ('65e8.STEP',
    '2023-02-12T11:09:19',
    ( '' ),
    ( '' ),
    'SwSTEP 2.0',
    'SolidWorks 2019',
    '' );
FILE_SCHEMA (( 'CONFIG_CONTROL_DESIGN' ));
ENDSEC;

DATA;
#1 = CIRCLE ( 'NONE', #57, 4.500000000000000000 ) ;
#2 = CC_DESIGN_PERSON_AND_ORGANIZATION_ASSIGNMENT ( #30, #186, ( #117 ) ) ;
#3 = EDGE_CURVE ( 'NONE', #224, #21, #137, .T. ) ;
#4 = DIRECTION ( 'NONE',  ( -0.000000000000000000, -0.000000000000000000, -1.000000000000000000 ) ) ;
#5 = PLANE ( 'NONE',  #136 ) ;
#6 = CARTESIAN_POINT ( 'NONE',  ( 0.000000000000000000, 0.000000000000000000, 0.000000000000000000 ) ) ;
#7 = CARTESIAN_POINT ( 'NONE',  ( 0.000000000000000000, 0.000000000000000000, 0.000000000000000000 ) ) ;
#8 = DIRECTION ( 'NONE',  ( -1.000000000000000000, 0.000000000000000000, 0.000000000000000000 ) ) ;
#9 = PRODUCT_DEFINITION ( 'NEZNÁMÝ', '', #95, #198 ) ;
#10 = AXIS2_PLACEMENT_3D ( 'NONE', #226, #145, #17 ) ;
#11 = PLANE ( 'NONE',  #194 ) ;
#12 = DIRECTION ( 'NONE',  ( 1.000000000000000000, 0.000000000000000000, 0.000000000000000000 ) ) ;
#13 = PERSON_AND_ORGANIZATION_ROLE ( 'creator' ) ;
#14 = VECTOR ( 'NONE', #138, 1000.000000000000000 ) ;
#15 = APPROVAL_STATUS ( 'not_yet_approved' ) ;
#16 = LOCAL_TIME ( 12, 9, 18.00000000000000000, #34 ) ;
#17 = DIRECTION ( 'NONE',  ( 1.000000000000000000, 0.000000000000000000, 0.000000000000000000 ) ) ;
#18 = DATE_AND_TIME ( #152, #213 ) ;
#19 = EDGE_LOOP ( 'NONE', ( #173, #160, #235, #197 ) ) ;
#20 = CC_DESIGN_APPROVAL ( #249, ( #95 ) ) ;
#21 = VERTEX_POINT ( 'NONE', #121 ) ;
#22 = VECTOR ( 'NONE', #64, 1000.000000000000000 ) ;
#23 = CC_DESIGN_APPROVAL ( #239, ( #113 ) ) ;
#24 = DIRECTION ( 'NONE',  ( 0.000000000000000000, 0.000000000000000000, 1.000000000000000000 ) ) ;
#25 = CARTESIAN_POINT ( 'NONE',  ( -7.000000000000000000, 0.000000000000000000, 5.000000000000000000 ) ) ;
#26 = ORIENTED_EDGE ( 'NONE', *, *, #232, .F. ) ;
#27 = PERSON ( 'NEURÈENÝ', 'NEURÈENÝ', 'NEURÈENÝ', ('NEURÈENÝ'), ('NEURÈENÝ'), ('NEURÈENÝ') ) ;
#28 = DIRECTION ( 'NONE',  ( 1.000000000000000000, 0.000000000000000000, -0.000000000000000000 ) ) ;
#29 = DIRECTION ( 'NONE',  ( 0.000000000000000000, 0.000000000000000000, 1.000000000000000000 ) ) ;
#30 = PERSON_AND_ORGANIZATION ( #27, #85 ) ;
#31 = EDGE_CURVE ( 'NONE', #21, #215, #66, .T. ) ;
#32 = CC_DESIGN_PERSON_AND_ORGANIZATION_ASSIGNMENT ( #253, #40, ( #95 ) ) ;
#33 = PRODUCT_DEFINITION_SHAPE ( 'NONE', 'NONE',  #9 ) ;
#34 = COORDINATED_UNIVERSAL_TIME_OFFSET ( 1, 0, .AHEAD. ) ;
#35 = DIRECTION ( 'NONE',  ( 1.000000000000000000, 0.000000000000000000, 0.000000000000000000 ) ) ;
#36 = ORIENTED_EDGE ( 'NONE', *, *, #31, .T. ) ;
#37 = ORIENTED_EDGE ( 'NONE', *, *, #83, .T. ) ;
#38 = ADVANCED_FACE ( 'NONE', ( #218 ), #104, .T. ) ;
#39 = CIRCLE ( 'NONE', #178, 7.000000000000000000 ) ;
#40 = PERSON_AND_ORGANIZATION_ROLE ( 'design_supplier' ) ;
#41 = COORDINATED_UNIVERSAL_TIME_OFFSET ( 1, 0, .AHEAD. ) ;
#42 = VERTEX_POINT ( 'NONE', #87 ) ;
#43 = CARTESIAN_POINT ( 'NONE',  ( 0.000000000000000000, 0.000000000000000000, 5.000000000000000000 ) ) ;
#44 = CARTESIAN_POINT ( 'NONE',  ( 0.000000000000000000, 0.000000000000000000, 5.000000000000000000 ) ) ;
#45 = FACE_OUTER_BOUND ( 'NONE', #223, .T. ) ;
#46 = CARTESIAN_POINT ( 'NONE',  ( 7.000000000000000000, 8.572527594031473190E-16, 5.000000000000000000 ) ) ;
#47 = AXIS2_PLACEMENT_3D ( 'NONE', #187, #90, #12 ) ;
#48 = DIRECTION ( 'NONE',  ( 1.000000000000000000, 0.000000000000000000, 0.000000000000000000 ) ) ;
#49 = EDGE_CURVE ( 'NONE', #157, #42, #1, .T. ) ;
#50 = FACE_OUTER_BOUND ( 'NONE', #193, .T. ) ;
#51 = DIRECTION ( 'NONE',  ( 1.000000000000000000, 0.000000000000000000, -0.000000000000000000 ) ) ;
#52 = CIRCLE ( 'NONE', #94, 4.500000000000000000 ) ;
#53 = CC_DESIGN_PERSON_AND_ORGANIZATION_ASSIGNMENT ( #78, #116, ( #95 ) ) ;
#54 = PERSON_AND_ORGANIZATION ( #27, #85 ) ;
#55 = EDGE_LOOP ( 'NONE', ( #153, #97, #159, #36 ) ) ;
#56 = DATE_AND_TIME ( #167, #151 ) ;
#57 = AXIS2_PLACEMENT_3D ( 'NONE', #67, #29, #103 ) ;
#58 = APPROVAL_STATUS ( 'not_yet_approved' ) ;
#59 = AXIS2_PLACEMENT_3D ( 'NONE', #250, #107, #35 ) ;
#60 = EDGE_LOOP ( 'NONE', ( #148, #63 ) ) ;
#61 = APPROVAL_ROLE ( '' ) ;
#62 = DIRECTION ( 'NONE',  ( 1.000000000000000000, 0.000000000000000000, 0.000000000000000000 ) ) ;
#63 = ORIENTED_EDGE ( 'NONE', *, *, #105, .F. ) ;
#64 = DIRECTION ( 'NONE',  ( -0.000000000000000000, -0.000000000000000000, -1.000000000000000000 ) ) ;
#65 = DIRECTION ( 'NONE',  ( -0.000000000000000000, -0.000000000000000000, -1.000000000000000000 ) ) ;
#66 = CIRCLE ( 'NONE', #237, 7.000000000000000000 ) ;
#67 = CARTESIAN_POINT ( 'NONE',  ( 0.000000000000000000, 0.000000000000000000, 125.0000000000000000 ) ) ;
#68 = CIRCLE ( 'NONE', #10, 4.500000000000000000 ) ;
#69 = FACE_OUTER_BOUND ( 'NONE', #19, .T. ) ;
#70 = MANIFOLD_SOLID_BREP ( 'Pøidat vysunutím3', #129 ) ;
#71 = APPLICATION_PROTOCOL_DEFINITION ( 'international standard', 'config_control_design', 1994, #214 ) ;
#72 = DIRECTION ( 'NONE',  ( 0.000000000000000000, 0.000000000000000000, 1.000000000000000000 ) ) ;
#73 = FACE_OUTER_BOUND ( 'NONE', #132, .T. ) ;
#74 = COORDINATED_UNIVERSAL_TIME_OFFSET ( 1, 0, .AHEAD. ) ;
#75 = ORIENTED_EDGE ( 'NONE', *, *, #162, .F. ) ;
#76 = APPROVAL ( #15, 'NEURÈENÝ' ) ;
#77 = ORIENTED_EDGE ( 'NONE', *, *, #89, .T. ) ;
#78 = PERSON_AND_ORGANIZATION ( #27, #85 ) ;
#79 = VERTEX_POINT ( 'NONE', #201 ) ;
#80 = ORIENTED_EDGE ( 'NONE', *, *, #171, .T. ) ;
#81 = CYLINDRICAL_SURFACE ( 'NONE', #231, 4.500000000000000000 ) ;
#82 = UNCERTAINTY_MEASURE_WITH_UNIT (LENGTH_MEASURE( 1.000000000000000082E-05 ), #109, 'distance_accuracy_value', 'NONE');
#83 = EDGE_CURVE ( 'NONE', #42, #131, #240, .T. ) ;
#84 = EDGE_LOOP ( 'NONE', ( #75, #112 ) ) ;
#85 = ORGANIZATION ( 'NEURÈENÝ', 'NEURÈENÝ', '' ) ;
#86 = DIRECTION ( 'NONE',  ( 0.000000000000000000, 0.000000000000000000, 1.000000000000000000 ) ) ;
#87 = CARTESIAN_POINT ( 'NONE',  ( -4.500000000000000000, 0.000000000000000000, 125.0000000000000000 ) ) ;
#88 = DIRECTION ( 'NONE',  ( 0.000000000000000000, 0.000000000000000000, 1.000000000000000000 ) ) ;
#89 = EDGE_CURVE ( 'NONE', #224, #79, #39, .T. ) ;
#90 = DIRECTION ( 'NONE',  ( 0.000000000000000000, 0.000000000000000000, 1.000000000000000000 ) ) ;
#91 = ADVANCED_FACE ( 'NONE', ( #101 ), #81, .T. ) ;
#92 = APPROVAL_ROLE ( '' ) ;
#93 = COORDINATED_UNIVERSAL_TIME_OFFSET ( 1, 0, .AHEAD. ) ;
#94 = AXIS2_PLACEMENT_3D ( 'NONE', #139, #24, #177 ) ;
#95 = PRODUCT_DEFINITION_FORMATION_WITH_SPECIFIED_SOURCE ( 'LIBOVOLNÝ', '', #117, .NOT_KNOWN. ) ;
#96 = PERSON_AND_ORGANIZATION ( #27, #85 ) ;
#97 = ORIENTED_EDGE ( 'NONE', *, *, #89, .F. ) ;
#98 = DATE_TIME_ROLE ( 'classification_date' ) ;
#99 = ORIENTED_EDGE ( 'NONE', *, *, #207, .F. ) ;
#100 = LINE ( 'NONE', #46, #150 ) ;
#101 = FACE_OUTER_BOUND ( 'NONE', #115, .T. ) ;
#102 = DIRECTION ( 'NONE',  ( -0.000000000000000000, -0.000000000000000000, -1.000000000000000000 ) ) ;
#103 = DIRECTION ( 'NONE',  ( 1.000000000000000000, 0.000000000000000000, 0.000000000000000000 ) ) ;
#104 = CYLINDRICAL_SURFACE ( 'NONE', #146, 7.000000000000000000 ) ;
#105 = EDGE_CURVE ( 'NONE', #215, #21, #252, .T. ) ;
#106 = PERSON_AND_ORGANIZATION ( #27, #85 ) ;
#107 = DIRECTION ( 'NONE',  ( 0.000000000000000000, 0.000000000000000000, 1.000000000000000000 ) ) ;
#108 = VECTOR ( 'NONE', #184, 1000.000000000000000 ) ;
#109 =( LENGTH_UNIT ( ) NAMED_UNIT ( * ) SI_UNIT ( .MILLI., .METRE. ) );
#110 = CALENDAR_DATE ( 2023, 12, 2 ) ;
#111 = ORIENTED_EDGE ( 'NONE', *, *, #245, .F. ) ;
#112 = ORIENTED_EDGE ( 'NONE', *, *, #175, .F. ) ;
#113 = SECURITY_CLASSIFICATION ( '', '', #134 ) ;
#114 = CALENDAR_DATE ( 2023, 12, 2 ) ;
#115 = EDGE_LOOP ( 'NONE', ( #26, #111, #37, #221 ) ) ;
#116 = PERSON_AND_ORGANIZATION_ROLE ( 'creator' ) ;
#117 = PRODUCT ( '65e8', '65e8', '', ( #161 ) ) ;
#118 = DATE_AND_TIME ( #110, #141 ) ;
#119 = CARTESIAN_POINT ( 'NONE',  ( -4.500000000000000000, 0.000000000000000000, 5.000000000000000000 ) ) ;
#120 = DIRECTION ( 'NONE',  ( 1.000000000000000000, 0.000000000000000000, 0.000000000000000000 ) ) ;
#121 = CARTESIAN_POINT ( 'NONE',  ( -7.000000000000000000, 0.000000000000000000, 0.000000000000000000 ) ) ;
#122 = DIRECTION ( 'NONE',  ( 1.000000000000000000, 0.000000000000000000, -0.000000000000000000 ) ) ;
#123 = APPROVAL_PERSON_ORGANIZATION ( #254, #249, #61 ) ;
#124 = CARTESIAN_POINT ( 'NONE',  ( 0.000000000000000000, 0.000000000000000000, 125.0000000000000000 ) ) ;
#125 = PRODUCT_RELATED_PRODUCT_CATEGORY ( 'detail', '', ( #117 ) ) ;
#126 = APPLICATION_PROTOCOL_DEFINITION ( 'international standard', 'config_control_design', 1994, #182 ) ;
#127 = APPROVAL_DATE_TIME ( #227, #76 ) ;
#128 = CARTESIAN_POINT ( 'NONE',  ( 7.000000000000000000, 8.572527594031473190E-16, 0.000000000000000000 ) ) ;
#129 = CLOSED_SHELL ( 'NONE', ( #229, #190, #38, #236, #130, #91, #180 ) ) ;
#130 = ADVANCED_FACE ( 'NONE', ( #135 ), #202, .F. ) ;
#131 = VERTEX_POINT ( 'NONE', #119 ) ;
#132 = EDGE_LOOP ( 'NONE', ( #99, #80, #191, #181 ) ) ;
#133 = APPROVAL_DATE_TIME ( #56, #249 ) ;
#134 = SECURITY_CLASSIFICATION_LEVEL ( 'unclassified' ) ;
#135 = FACE_OUTER_BOUND ( 'NONE', #60, .T. ) ;
#136 = AXIS2_PLACEMENT_3D ( 'NONE', #179, #204, #28 ) ;
#137 = LINE ( 'NONE', #25, #14 ) ;
#138 = DIRECTION ( 'NONE',  ( -0.000000000000000000, -0.000000000000000000, -1.000000000000000000 ) ) ;
#139 = CARTESIAN_POINT ( 'NONE',  ( 0.000000000000000000, 0.000000000000000000, 5.000000000000000000 ) ) ;
#140 = CARTESIAN_POINT ( 'NONE',  ( -4.500000000000000000, 0.000000000000000000, 125.0000000000000000 ) ) ;
#141 = LOCAL_TIME ( 12, 9, 18.00000000000000000, #41 ) ;
#142 = CARTESIAN_POINT ( 'NONE',  ( 0.000000000000000000, 0.000000000000000000, 125.0000000000000000 ) ) ;
#143 = CALENDAR_DATE ( 2023, 12, 2 ) ;
#144 = CARTESIAN_POINT ( 'NONE',  ( 4.500000000000000000, 5.510910596163088569E-16, 125.0000000000000000 ) ) ;
#145 = DIRECTION ( 'NONE',  ( 0.000000000000000000, 0.000000000000000000, 1.000000000000000000 ) ) ;
#146 = AXIS2_PLACEMENT_3D ( 'NONE', #238, #102, #176 ) ;
#147 = PERSON_AND_ORGANIZATION ( #27, #85 ) ;
#148 = ORIENTED_EDGE ( 'NONE', *, *, #31, .F. ) ;
#149 = PERSON_AND_ORGANIZATION_ROLE ( 'classification_officer' ) ;
#150 = VECTOR ( 'NONE', #4, 1000.000000000000000 ) ;
#151 = LOCAL_TIME ( 12, 9, 18.00000000000000000, #74 ) ;
#152 = CALENDAR_DATE ( 2023, 12, 2 ) ;
#153 = ORIENTED_EDGE ( 'NONE', *, *, #171, .F. ) ;
#154 = VERTEX_POINT ( 'NONE', #200 ) ;
#155 = DIRECTION ( 'NONE',  ( 0.000000000000000000, 0.000000000000000000, 1.000000000000000000 ) ) ;
#156 = AXIS2_PLACEMENT_3D ( 'NONE', #7, #88, #62 ) ;
#157 = VERTEX_POINT ( 'NONE', #241 ) ;
#158 = DIRECTION ( 'NONE',  ( 0.000000000000000000, 0.000000000000000000, 1.000000000000000000 ) ) ;
#159 = ORIENTED_EDGE ( 'NONE', *, *, #3, .T. ) ;
#160 = ORIENTED_EDGE ( 'NONE', *, *, #232, .T. ) ;
#161 = MECHANICAL_CONTEXT ( 'NONE', #182, 'mechanical' ) ;
#162 = EDGE_CURVE ( 'NONE', #131, #154, #52, .T. ) ;
#163 =( NAMED_UNIT ( * ) PLANE_ANGLE_UNIT ( ) SI_UNIT ( $, .RADIAN. ) );
#164 = CARTESIAN_POINT ( 'NONE',  ( 0.000000000000000000, 0.000000000000000000, 5.000000000000000000 ) ) ;
#165 = AXIS2_PLACEMENT_3D ( 'NONE', #164, #246, #206 ) ;
#166 = CYLINDRICAL_SURFACE ( 'NONE', #165, 7.000000000000000000 ) ;
#167 = CALENDAR_DATE ( 2023, 12, 2 ) ;
#168 = APPROVAL_ROLE ( '' ) ;
#169 = ORIENTED_EDGE ( 'NONE', *, *, #207, .T. ) ;
#170 = LOCAL_TIME ( 12, 9, 18.00000000000000000, #93 ) ;
#171 = EDGE_CURVE ( 'NONE', #79, #215, #100, .T. ) ;
#172 = CC_DESIGN_PERSON_AND_ORGANIZATION_ASSIGNMENT ( #147, #149, ( #113 ) ) ;
#173 = ORIENTED_EDGE ( 'NONE', *, *, #49, .F. ) ;
#174 =( GEOMETRIC_REPRESENTATION_CONTEXT ( 3 ) GLOBAL_UNCERTAINTY_ASSIGNED_CONTEXT ( ( #82 ) ) GLOBAL_UNIT_ASSIGNED_CONTEXT ( ( #109, #163, #225 ) ) REPRESENTATION_CONTEXT ( 'NONE', 'WORKASPACE' ) );
#175 = EDGE_CURVE ( 'NONE', #154, #131, #188, .T. ) ;
#176 = DIRECTION ( 'NONE',  ( -1.000000000000000000, 0.000000000000000000, 0.000000000000000000 ) ) ;
#177 = DIRECTION ( 'NONE',  ( 1.000000000000000000, 0.000000000000000000, 0.000000000000000000 ) ) ;
#178 = AXIS2_PLACEMENT_3D ( 'NONE', #43, #222, #183 ) ;
#179 = CARTESIAN_POINT ( 'NONE',  ( 0.000000000000000000, 0.000000000000000000, 125.0000000000000000 ) ) ;
#180 = ADVANCED_FACE ( 'NONE', ( #45 ), #5, .T. ) ;
#181 = ORIENTED_EDGE ( 'NONE', *, *, #3, .F. ) ;
#182 = APPLICATION_CONTEXT ( 'configuration controlled 3d designs of mechanical parts and assemblies' ) ;
#183 = DIRECTION ( 'NONE',  ( 1.000000000000000000, 0.000000000000000000, 0.000000000000000000 ) ) ;
#184 = DIRECTION ( 'NONE',  ( -0.000000000000000000, -0.000000000000000000, -1.000000000000000000 ) ) ;
#185 = CC_DESIGN_PERSON_AND_ORGANIZATION_ASSIGNMENT ( #96, #13, ( #9 ) ) ;
#186 = PERSON_AND_ORGANIZATION_ROLE ( 'design_owner' ) ;
#187 = CARTESIAN_POINT ( 'NONE',  ( 0.000000000000000000, 0.000000000000000000, 0.000000000000000000 ) ) ;
#188 = CIRCLE ( 'NONE', #199, 4.500000000000000000 ) ;
#189 = CC_DESIGN_SECURITY_CLASSIFICATION ( #113, ( #95 ) ) ;
#190 = ADVANCED_FACE ( 'NONE', ( #73 ), #166, .T. ) ;
#191 = ORIENTED_EDGE ( 'NONE', *, *, #105, .T. ) ;
#192 = COORDINATED_UNIVERSAL_TIME_OFFSET ( 1, 0, .AHEAD. ) ;
#193 = EDGE_LOOP ( 'NONE', ( #77, #169 ) ) ;
#194 = AXIS2_PLACEMENT_3D ( 'NONE', #208, #72, #51 ) ;
#195 = DATE_TIME_ROLE ( 'creation_date' ) ;
#196 = APPROVAL_DATE_TIME ( #18, #239 ) ;
#197 = ORIENTED_EDGE ( 'NONE', *, *, #83, .F. ) ;
#198 = DESIGN_CONTEXT ( 'detailed design', #214, 'design' ) ;
#199 = AXIS2_PLACEMENT_3D ( 'NONE', #44, #155, #120 ) ;
#200 = CARTESIAN_POINT ( 'NONE',  ( 4.500000000000000000, 5.510910596163088569E-16, 5.000000000000000000 ) ) ;
#201 = CARTESIAN_POINT ( 'NONE',  ( 7.000000000000000000, 8.572527594031473190E-16, 5.000000000000000000 ) ) ;
#202 = PLANE ( 'NONE',  #203 ) ;
#203 = AXIS2_PLACEMENT_3D ( 'NONE', #6, #86, #122 ) ;
#204 = DIRECTION ( 'NONE',  ( 0.000000000000000000, 0.000000000000000000, 1.000000000000000000 ) ) ;
#205 = CARTESIAN_POINT ( 'NONE',  ( 0.000000000000000000, 0.000000000000000000, 0.000000000000000000 ) ) ;
#206 = DIRECTION ( 'NONE',  ( -1.000000000000000000, 0.000000000000000000, 0.000000000000000000 ) ) ;
#207 = EDGE_CURVE ( 'NONE', #79, #224, #248, .T. ) ;
#208 = CARTESIAN_POINT ( 'NONE',  ( 0.000000000000000000, 0.000000000000000000, 5.000000000000000000 ) ) ;
#209 = LINE ( 'NONE', #144, #108 ) ;
#210 = DIRECTION ( 'NONE',  ( -1.000000000000000000, 0.000000000000000000, 0.000000000000000000 ) ) ;
#211 = CC_DESIGN_DATE_AND_TIME_ASSIGNMENT ( #216, #195, ( #9 ) ) ;
#212 = CYLINDRICAL_SURFACE ( 'NONE', #234, 4.500000000000000000 ) ;
#213 = LOCAL_TIME ( 12, 9, 18.00000000000000000, #192 ) ;
#214 = APPLICATION_CONTEXT ( 'configuration controlled 3d designs of mechanical parts and assemblies' ) ;
#215 = VERTEX_POINT ( 'NONE', #128 ) ;
#216 = DATE_AND_TIME ( #114, #170 ) ;
#217 = CC_DESIGN_DATE_AND_TIME_ASSIGNMENT ( #118, #98, ( #113 ) ) ;
#218 = FACE_OUTER_BOUND ( 'NONE', #55, .T. ) ;
#219 = APPROVAL_PERSON_ORGANIZATION ( #54, #239, #168 ) ;
#220 = APPROVAL_PERSON_ORGANIZATION ( #106, #76, #92 ) ;
#221 = ORIENTED_EDGE ( 'NONE', *, *, #162, .T. ) ;
#222 = DIRECTION ( 'NONE',  ( 0.000000000000000000, 0.000000000000000000, 1.000000000000000000 ) ) ;
#223 = EDGE_LOOP ( 'NONE', ( #233, #242 ) ) ;
#224 = VERTEX_POINT ( 'NONE', #244 ) ;
#225 =( NAMED_UNIT ( * ) SI_UNIT ( $, .STERADIAN. ) SOLID_ANGLE_UNIT ( ) );
#226 = CARTESIAN_POINT ( 'NONE',  ( 0.000000000000000000, 0.000000000000000000, 125.0000000000000000 ) ) ;
#227 = DATE_AND_TIME ( #143, #16 ) ;
#228 = CC_DESIGN_APPROVAL ( #76, ( #9 ) ) ;
#229 = ADVANCED_FACE ( 'NONE', ( #69 ), #212, .T. ) ;
#230 = FACE_BOUND ( 'NONE', #84, .T. ) ;
#231 = AXIS2_PLACEMENT_3D ( 'NONE', #124, #65, #8 ) ;
#232 = EDGE_CURVE ( 'NONE', #157, #154, #209, .T. ) ;
#233 = ORIENTED_EDGE ( 'NONE', *, *, #245, .T. ) ;
#234 = AXIS2_PLACEMENT_3D ( 'NONE', #142, #243, #210 ) ;
#235 = ORIENTED_EDGE ( 'NONE', *, *, #175, .T. ) ;
#236 = ADVANCED_FACE ( 'NONE', ( #230, #50 ), #11, .T. ) ;
#237 = AXIS2_PLACEMENT_3D ( 'NONE', #205, #158, #48 ) ;
#238 = CARTESIAN_POINT ( 'NONE',  ( 0.000000000000000000, 0.000000000000000000, 5.000000000000000000 ) ) ;
#239 = APPROVAL ( #255, 'NEURÈENÝ' ) ;
#240 = LINE ( 'NONE', #140, #22 ) ;
#241 = CARTESIAN_POINT ( 'NONE',  ( 4.500000000000000000, 5.510910596163088569E-16, 125.0000000000000000 ) ) ;
#242 = ORIENTED_EDGE ( 'NONE', *, *, #49, .T. ) ;
#243 = DIRECTION ( 'NONE',  ( -0.000000000000000000, -0.000000000000000000, -1.000000000000000000 ) ) ;
#244 = CARTESIAN_POINT ( 'NONE',  ( -7.000000000000000000, 0.000000000000000000, 5.000000000000000000 ) ) ;
#245 = EDGE_CURVE ( 'NONE', #42, #157, #68, .T. ) ;
#246 = DIRECTION ( 'NONE',  ( -0.000000000000000000, -0.000000000000000000, -1.000000000000000000 ) ) ;
#247 = ADVANCED_BREP_SHAPE_REPRESENTATION ( '65e8', ( #70, #47 ), #174 ) ;
#248 = CIRCLE ( 'NONE', #59, 7.000000000000000000 ) ;
#249 = APPROVAL ( #58, 'NEURÈENÝ' ) ;
#250 = CARTESIAN_POINT ( 'NONE',  ( 0.000000000000000000, 0.000000000000000000, 5.000000000000000000 ) ) ;
#251 = SHAPE_DEFINITION_REPRESENTATION ( #33, #247 ) ;
#252 = CIRCLE ( 'NONE', #156, 7.000000000000000000 ) ;
#253 = PERSON_AND_ORGANIZATION ( #27, #85 ) ;
#254 = PERSON_AND_ORGANIZATION ( #27, #85 ) ;
#255 = APPROVAL_STATUS ( 'not_yet_approved' ) ;
ENDSEC;
END-ISO-10303-21;
