ISO-10303-21;
HEADER;
FILE_DESCRIPTION (( 'STEP AP203' ),
    '1' );
FILE_NAME ('30a7.STEP',
    '2022-07-07T12:23:08',
    ( '' ),
    ( '' ),
    'SwSTEP 2.0',
    'SolidWorks 2019',
    '' );
FILE_SCHEMA (( 'CONFIG_CONTROL_DESIGN' ));
ENDSEC;

DATA;
#1 = AXIS2_PLACEMENT_3D ( 'NONE', #201, #32, #9 ) ;
#2 = CIRCLE ( 'NONE', #34, 6.200000000000001066 ) ;
#3 = ORIENTED_EDGE ( 'NONE', *, *, #287, .T. ) ;
#4 = CARTESIAN_POINT ( 'NONE',  ( -6.000000000000000888, 0.000000000000000000, 7.199999999999984190 ) ) ;
#5 = AXIS2_PLACEMENT_3D ( 'NONE', #157, #82, #219 ) ;
#6 = CARTESIAN_POINT ( 'NONE',  ( 6.200000000000001066, 0.000000000000000000, 7.199999999999984190 ) ) ;
#7 = EDGE_CURVE ( 'NONE', #267, #27, #229, .T. ) ;
#8 = CARTESIAN_POINT ( 'NONE',  ( 0.000000000000000000, 0.000000000000000000, 0.000000000000000000 ) ) ;
#9 = DIRECTION ( 'NONE',  ( 1.000000000000000000, 0.000000000000000000, 0.000000000000000000 ) ) ;
#10 = CYLINDRICAL_SURFACE ( 'NONE', #5, 9.000000000000000000 ) ;
#11 = CARTESIAN_POINT ( 'NONE',  ( 0.000000000000000000, 0.000000000000000000, 407.0000000000000000 ) ) ;
#12 = DIRECTION ( 'NONE',  ( -1.000000000000000000, 0.000000000000000000, 0.000000000000000000 ) ) ;
#13 = CIRCLE ( 'NONE', #134, 6.000000000000000888 ) ;
#14 = ORIENTED_EDGE ( 'NONE', *, *, #16, .T. ) ;
#15 = FACE_OUTER_BOUND ( 'NONE', #51, .T. ) ;
#16 = EDGE_CURVE ( 'NONE', #267, #87, #72, .T. ) ;
#17 = FACE_OUTER_BOUND ( 'NONE', #97, .T. ) ;
#18 = DIRECTION ( 'NONE',  ( -0.000000000000000000, -0.000000000000000000, -1.000000000000000000 ) ) ;
#19 = CALENDAR_DATE ( 2022, 7, 7 ) ;
#20 = AXIS2_PLACEMENT_3D ( 'NONE', #8, #280, #60 ) ;
#21 = EDGE_CURVE ( 'NONE', #191, #170, #13, .T. ) ;
#22 = PERSON_AND_ORGANIZATION ( #289, #103 ) ;
#23 = APPROVAL_DATE_TIME ( #26, #234 ) ;
#24 = DATE_AND_TIME ( #231, #162 ) ;
#25 = PRODUCT_DEFINITION_FORMATION_WITH_SPECIFIED_SOURCE ( 'LIBOVOLNÝ', '', #44, .NOT_KNOWN. ) ;
#26 = DATE_AND_TIME ( #185, #193 ) ;
#27 = VERTEX_POINT ( 'NONE', #4 ) ;
#28 = ADVANCED_FACE ( 'NONE', ( #111, #65 ), #300, .T. ) ;
#29 = CC_DESIGN_APPROVAL ( #99, ( #121 ) ) ;
#30 = CARTESIAN_POINT ( 'NONE',  ( 0.000000000000000000, 0.000000000000000000, 7.199999999999984190 ) ) ;
#31 = EDGE_CURVE ( 'NONE', #27, #101, #207, .T. ) ;
#32 = DIRECTION ( 'NONE',  ( 0.000000000000000000, 0.000000000000000000, 1.000000000000000000 ) ) ;
#33 = CARTESIAN_POINT ( 'NONE',  ( 0.000000000000000000, 0.000000000000000000, 407.0000000000000000 ) ) ;
#34 = AXIS2_PLACEMENT_3D ( 'NONE', #301, #223, #179 ) ;
#35 = ORIENTED_EDGE ( 'NONE', *, *, #190, .T. ) ;
#36 = DIRECTION ( 'NONE',  ( -0.000000000000000000, -0.000000000000000000, -1.000000000000000000 ) ) ;
#37 = DIRECTION ( 'NONE',  ( 0.000000000000000000, 0.000000000000000000, 1.000000000000000000 ) ) ;
#38 = ORIENTED_EDGE ( 'NONE', *, *, #89, .T. ) ;
#39 = EDGE_CURVE ( 'NONE', #237, #164, #306, .T. ) ;
#40 = LINE ( 'NONE', #135, #285 ) ;
#41 = AXIS2_PLACEMENT_3D ( 'NONE', #194, #106, #172 ) ;
#42 = AXIS2_PLACEMENT_3D ( 'NONE', #244, #302, #275 ) ;
#43 = DIRECTION ( 'NONE',  ( 1.000000000000000000, 0.000000000000000000, -0.000000000000000000 ) ) ;
#44 = PRODUCT ( '30a7', '30a7', '', ( #189 ) ) ;
#45 = PERSON_AND_ORGANIZATION_ROLE ( 'design_supplier' ) ;
#46 = COORDINATED_UNIVERSAL_TIME_OFFSET ( 1, 0, .AHEAD. ) ;
#47 = AXIS2_PLACEMENT_3D ( 'NONE', #90, #173, #181 ) ;
#48 = SHAPE_DEFINITION_REPRESENTATION ( #236, #213 ) ;
#49 = DATE_AND_TIME ( #50, #199 ) ;
#50 = CALENDAR_DATE ( 2022, 7, 7 ) ;
#51 = EDGE_LOOP ( 'NONE', ( #248, #151 ) ) ;
#52 = CC_DESIGN_DATE_AND_TIME_ASSIGNMENT ( #141, #114, ( #186 ) ) ;
#53 = ORIENTED_EDGE ( 'NONE', *, *, #204, .F. ) ;
#54 = EDGE_LOOP ( 'NONE', ( #154, #187, #38, #61 ) ) ;
#55 = ORIENTED_EDGE ( 'NONE', *, *, #7, .T. ) ;
#56 = LOCAL_TIME ( 14, 23, 8.000000000000000000, #259 ) ;
#57 = VERTEX_POINT ( 'NONE', #297 ) ;
#58 = CARTESIAN_POINT ( 'NONE',  ( -6.200000000000001066, 7.592810154713590821E-16, 6.999999999999992006 ) ) ;
#59 = CARTESIAN_POINT ( 'NONE',  ( 6.200000000000001066, 0.000000000000000000, 6.999999999999992006 ) ) ;
#60 = DIRECTION ( 'NONE',  ( 1.000000000000000000, 0.000000000000000000, 0.000000000000000000 ) ) ;
#61 = ORIENTED_EDGE ( 'NONE', *, *, #39, .T. ) ;
#62 = CARTESIAN_POINT ( 'NONE',  ( 9.000000000000000000, 1.102182119232617714E-15, 7.000000000000000000 ) ) ;
#63 = EDGE_LOOP ( 'NONE', ( #53, #122, #265, #276 ) ) ;
#64 = CARTESIAN_POINT ( 'NONE',  ( 9.000000000000000000, 1.102182119232617714E-15, 7.000000000000000000 ) ) ;
#65 = FACE_OUTER_BOUND ( 'NONE', #129, .T. ) ;
#66 = TOROIDAL_SURFACE ( 'NONE', #278, 6.200000000000001066, 0.2000000000000000111 ) ;
#67 = PERSON_AND_ORGANIZATION ( #289, #103 ) ;
#68 = CC_DESIGN_DATE_AND_TIME_ASSIGNMENT ( #49, #206, ( #121 ) ) ;
#69 =( NAMED_UNIT ( * ) PLANE_ANGLE_UNIT ( ) SI_UNIT ( $, .RADIAN. ) );
#70 = APPROVAL ( #205, 'NEURÈENÝ' ) ;
#71 = COORDINATED_UNIVERSAL_TIME_OFFSET ( 1, 0, .AHEAD. ) ;
#72 = CIRCLE ( 'NONE', #284, 0.1999999999999996503 ) ;
#73 = CC_DESIGN_APPROVAL ( #234, ( #25 ) ) ;
#74 = CIRCLE ( 'NONE', #257, 9.000000000000000000 ) ;
#75 = PERSON_AND_ORGANIZATION ( #289, #103 ) ;
#76 = EDGE_LOOP ( 'NONE', ( #211, #104, #264, #108 ) ) ;
#77 = AXIS2_PLACEMENT_3D ( 'NONE', #295, #132, #268 ) ;
#78 = DIRECTION ( 'NONE',  ( -0.000000000000000000, -0.000000000000000000, -1.000000000000000000 ) ) ;
#79 = FACE_OUTER_BOUND ( 'NONE', #240, .T. ) ;
#80 = CYLINDRICAL_SURFACE ( 'NONE', #208, 6.000000000000000888 ) ;
#81 = CARTESIAN_POINT ( 'NONE',  ( -9.000000000000000000, 0.000000000000000000, 7.000000000000000000 ) ) ;
#82 = DIRECTION ( 'NONE',  ( -0.000000000000000000, -0.000000000000000000, -1.000000000000000000 ) ) ;
#83 = AXIS2_PLACEMENT_3D ( 'NONE', #131, #107, #197 ) ;
#84 = EDGE_CURVE ( 'NONE', #170, #27, #178, .T. ) ;
#85 = CARTESIAN_POINT ( 'NONE',  ( 0.000000000000000000, 0.000000000000000000, 407.0000000000000000 ) ) ;
#86 = DIRECTION ( 'NONE',  ( 1.000000000000000000, 0.000000000000000000, 0.000000000000000000 ) ) ;
#87 = VERTEX_POINT ( 'NONE', #59 ) ;
#88 = CARTESIAN_POINT ( 'NONE',  ( -6.000000000000000888, 0.000000000000000000, 407.0000000000000000 ) ) ;
#89 = EDGE_CURVE ( 'NONE', #57, #237, #218, .T. ) ;
#90 = CARTESIAN_POINT ( 'NONE',  ( 0.000000000000000000, 0.000000000000000000, 7.000000000000000000 ) ) ;
#91 = CIRCLE ( 'NONE', #252, 6.000000000000000888 ) ;
#92 = PERSON_AND_ORGANIZATION_ROLE ( 'creator' ) ;
#93 = PERSON_AND_ORGANIZATION ( #289, #103 ) ;
#94 = APPROVAL_STATUS ( 'not_yet_approved' ) ;
#95 = AXIS2_PLACEMENT_3D ( 'NONE', #246, #175, #12 ) ;
#96 = APPLICATION_PROTOCOL_DEFINITION ( 'international standard', 'config_control_design', 1994, #279 ) ;
#97 = EDGE_LOOP ( 'NONE', ( #166, #124 ) ) ;
#98 = CARTESIAN_POINT ( 'NONE',  ( 0.000000000000000000, 0.000000000000000000, 0.000000000000000000 ) ) ;
#99 = APPROVAL ( #281, 'NEURÈENÝ' ) ;
#100 = ADVANCED_FACE ( 'NONE', ( #291 ), #66, .F. ) ;
#101 = VERTEX_POINT ( 'NONE', #58 ) ;
#102 = CLOSED_SHELL ( 'NONE', ( #171, #188, #140, #233, #28, #144, #117, #130, #100 ) ) ;
#103 = ORGANIZATION ( 'NEURÈENÝ', 'NEURÈENÝ', '' ) ;
#104 = ORIENTED_EDGE ( 'NONE', *, *, #283, .T. ) ;
#105 = CYLINDRICAL_SURFACE ( 'NONE', #95, 9.000000000000000000 ) ;
#106 = DIRECTION ( 'NONE',  ( 0.000000000000000000, 0.000000000000000000, 1.000000000000000000 ) ) ;
#107 = DIRECTION ( 'NONE',  ( 0.000000000000000000, 0.000000000000000000, 1.000000000000000000 ) ) ;
#108 = ORIENTED_EDGE ( 'NONE', *, *, #89, .F. ) ;
#109 = DIRECTION ( 'NONE',  ( 1.000000000000000000, 0.000000000000000000, -0.000000000000000000 ) ) ;
#110 = AXIS2_PLACEMENT_3D ( 'NONE', #112, #299, #109 ) ;
#111 = FACE_BOUND ( 'NONE', #146, .T. ) ;
#112 = CARTESIAN_POINT ( 'NONE',  ( 0.000000000000000000, 0.000000000000000000, 0.000000000000000000 ) ) ;
#113 = DIRECTION ( 'NONE',  ( -1.000000000000000000, 0.000000000000000000, 0.000000000000000000 ) ) ;
#114 = DATE_TIME_ROLE ( 'classification_date' ) ;
#115 = CIRCLE ( 'NONE', #47, 6.200000000000001066 ) ;
#116 = PERSON_AND_ORGANIZATION ( #289, #103 ) ;
#117 = ADVANCED_FACE ( 'NONE', ( #79 ), #271, .T. ) ;
#118 = COORDINATED_UNIVERSAL_TIME_OFFSET ( 1, 0, .AHEAD. ) ;
#119 = VECTOR ( 'NONE', #78, 1000.000000000000000 ) ;
#120 = COORDINATED_UNIVERSAL_TIME_OFFSET ( 1, 0, .AHEAD. ) ;
#121 = PRODUCT_DEFINITION ( 'NEZNÁMÝ', '', #25, #307 ) ;
#122 = ORIENTED_EDGE ( 'NONE', *, *, #31, .T. ) ;
#123 = CC_DESIGN_PERSON_AND_ORGANIZATION_ASSIGNMENT ( #75, #138, ( #186 ) ) ;
#124 = ORIENTED_EDGE ( 'NONE', *, *, #21, .T. ) ;
#125 = DIRECTION ( 'NONE',  ( 0.000000000000000000, 0.000000000000000000, 1.000000000000000000 ) ) ;
#126 = DIRECTION ( 'NONE',  ( 0.000000000000000000, -1.000000000000000000, 0.000000000000000000 ) ) ;
#127 = CIRCLE ( 'NONE', #290, 6.000000000000000888 ) ;
#128 = DIRECTION ( 'NONE',  ( 1.000000000000000000, 0.000000000000000000, 0.000000000000000000 ) ) ;
#129 = EDGE_LOOP ( 'NONE', ( #35, #3 ) ) ;
#130 = ADVANCED_FACE ( 'NONE', ( #17 ), #158, .T. ) ;
#131 = CARTESIAN_POINT ( 'NONE',  ( 0.000000000000000000, 0.000000000000000000, 7.000000000000000000 ) ) ;
#132 = DIRECTION ( 'NONE',  ( 1.224646799147353207E-16, 1.000000000000000000, -0.000000000000000000 ) ) ;
#133 = ORIENTED_EDGE ( 'NONE', *, *, #21, .F. ) ;
#134 = AXIS2_PLACEMENT_3D ( 'NONE', #11, #37, #198 ) ;
#135 = CARTESIAN_POINT ( 'NONE',  ( 6.000000000000000888, 7.347880794884120722E-16, 407.0000000000000000 ) ) ;
#136 = FACE_OUTER_BOUND ( 'NONE', #76, .T. ) ;
#137 = PLANE ( 'NONE',  #110 ) ;
#138 = PERSON_AND_ORGANIZATION_ROLE ( 'classification_officer' ) ;
#139 = PERSON_AND_ORGANIZATION ( #289, #103 ) ;
#140 = ADVANCED_FACE ( 'NONE', ( #136 ), #10, .T. ) ;
#141 = DATE_AND_TIME ( #19, #56 ) ;
#142 = APPROVAL_ROLE ( '' ) ;
#143 = AXIS2_PLACEMENT_3D ( 'NONE', #224, #251, #43 ) ;
#144 = ADVANCED_FACE ( 'NONE', ( #15 ), #137, .F. ) ;
#145 = APPLICATION_CONTEXT ( 'configuration controlled 3d designs of mechanical parts and assemblies' ) ;
#146 = EDGE_LOOP ( 'NONE', ( #235, #149 ) ) ;
#147 = APPROVAL_PERSON_ORGANIZATION ( #228, #234, #142 ) ;
#148 = ORIENTED_EDGE ( 'NONE', *, *, #263, .F. ) ;
#149 = ORIENTED_EDGE ( 'NONE', *, *, #293, .T. ) ;
#150 = DIRECTION ( 'NONE',  ( 0.000000000000000000, 0.000000000000000000, 1.000000000000000000 ) ) ;
#151 = ORIENTED_EDGE ( 'NONE', *, *, #227, .F. ) ;
#152 = CIRCLE ( 'NONE', #83, 9.000000000000000000 ) ;
#153 = FACE_OUTER_BOUND ( 'NONE', #54, .T. ) ;
#154 = ORIENTED_EDGE ( 'NONE', *, *, #283, .F. ) ;
#155 = CARTESIAN_POINT ( 'NONE',  ( 0.000000000000000000, 0.000000000000000000, 7.199999999999984190 ) ) ;
#156 = VERTEX_POINT ( 'NONE', #62 ) ;
#157 = CARTESIAN_POINT ( 'NONE',  ( 0.000000000000000000, 0.000000000000000000, 7.000000000000000000 ) ) ;
#158 = PLANE ( 'NONE',  #143 ) ;
#159 = VECTOR ( 'NONE', #36, 1000.000000000000000 ) ;
#160 = CC_DESIGN_APPROVAL ( #70, ( #186 ) ) ;
#161 = DATE_AND_TIME ( #282, #266 ) ;
#162 = LOCAL_TIME ( 14, 23, 8.000000000000000000, #46 ) ;
#163 =( NAMED_UNIT ( * ) SI_UNIT ( $, .STERADIAN. ) SOLID_ANGLE_UNIT ( ) );
#164 = VERTEX_POINT ( 'NONE', #249 ) ;
#165 = ORIENTED_EDGE ( 'NONE', *, *, #288, .T. ) ;
#166 = ORIENTED_EDGE ( 'NONE', *, *, #263, .T. ) ;
#167 = CC_DESIGN_PERSON_AND_ORGANIZATION_ASSIGNMENT ( #139, #255, ( #44 ) ) ;
#168 = ORIENTED_EDGE ( 'NONE', *, *, #204, .T. ) ;
#169 = ORIENTED_EDGE ( 'NONE', *, *, #31, .F. ) ;
#170 = VERTEX_POINT ( 'NONE', #88 ) ;
#171 = ADVANCED_FACE ( 'NONE', ( #225 ), #216, .F. ) ;
#172 = DIRECTION ( 'NONE',  ( 1.000000000000000000, 0.000000000000000000, -0.000000000000000000 ) ) ;
#173 = DIRECTION ( 'NONE',  ( -0.000000000000000000, -0.000000000000000000, -1.000000000000000000 ) ) ;
#174 = AXIS2_PLACEMENT_3D ( 'NONE', #98, #261, #184 ) ;
#175 = DIRECTION ( 'NONE',  ( -0.000000000000000000, -0.000000000000000000, -1.000000000000000000 ) ) ;
#176 = DIRECTION ( 'NONE',  ( -0.000000000000000000, -0.000000000000000000, -1.000000000000000000 ) ) ;
#177 = LINE ( 'NONE', #64, #159 ) ;
#178 = LINE ( 'NONE', #245, #250 ) ;
#179 = DIRECTION ( 'NONE',  ( 1.000000000000000000, 0.000000000000000000, 0.000000000000000000 ) ) ;
#180 = AXIS2_PLACEMENT_3D ( 'NONE', #85, #176, #274 ) ;
#181 = DIRECTION ( 'NONE',  ( 1.000000000000000000, 0.000000000000000000, 0.000000000000000000 ) ) ;
#182 = APPROVAL_ROLE ( '' ) ;
#183 = CC_DESIGN_PERSON_AND_ORGANIZATION_ASSIGNMENT ( #209, #92, ( #25 ) ) ;
#184 = DIRECTION ( 'NONE',  ( 1.000000000000000000, 0.000000000000000000, 0.000000000000000000 ) ) ;
#185 = CALENDAR_DATE ( 2022, 7, 7 ) ;
#186 = SECURITY_CLASSIFICATION ( '', '', #305 ) ;
#187 = ORIENTED_EDGE ( 'NONE', *, *, #190, .F. ) ;
#188 = ADVANCED_FACE ( 'NONE', ( #202 ), #80, .T. ) ;
#189 = MECHANICAL_CONTEXT ( 'NONE', #145, 'mechanical' ) ;
#190 = EDGE_CURVE ( 'NONE', #57, #156, #74, .T. ) ;
#191 = VERTEX_POINT ( 'NONE', #203 ) ;
#192 = CARTESIAN_POINT ( 'NONE',  ( 0.000000000000000000, 0.000000000000000000, 0.000000000000000000 ) ) ;
#193 = LOCAL_TIME ( 14, 23, 8.000000000000000000, #118 ) ;
#194 = CARTESIAN_POINT ( 'NONE',  ( 0.000000000000000000, 0.000000000000000000, 7.000000000000000000 ) ) ;
#195 = CARTESIAN_POINT ( 'NONE',  ( -9.000000000000000000, 0.000000000000000000, 0.000000000000000000 ) ) ;
#196 = EDGE_LOOP ( 'NONE', ( #169, #286, #14, #243 ) ) ;
#197 = DIRECTION ( 'NONE',  ( 1.000000000000000000, 0.000000000000000000, 0.000000000000000000 ) ) ;
#198 = DIRECTION ( 'NONE',  ( 1.000000000000000000, 0.000000000000000000, 0.000000000000000000 ) ) ;
#199 = LOCAL_TIME ( 14, 23, 8.000000000000000000, #120 ) ;
#200 = CARTESIAN_POINT ( 'NONE',  ( 0.000000000000000000, 0.000000000000000000, 407.0000000000000000 ) ) ;
#201 = CARTESIAN_POINT ( 'NONE',  ( 0.000000000000000000, 0.000000000000000000, 7.199999999999984190 ) ) ;
#202 = FACE_OUTER_BOUND ( 'NONE', #247, .T. ) ;
#203 = CARTESIAN_POINT ( 'NONE',  ( 6.000000000000000888, 7.347880794884120722E-16, 407.0000000000000000 ) ) ;
#204 = EDGE_CURVE ( 'NONE', #27, #267, #91, .T. ) ;
#205 = APPROVAL_STATUS ( 'not_yet_approved' ) ;
#206 = DATE_TIME_ROLE ( 'creation_date' ) ;
#207 = CIRCLE ( 'NONE', #77, 0.1999999999999996503 ) ;
#208 = AXIS2_PLACEMENT_3D ( 'NONE', #33, #18, #113 ) ;
#209 = PERSON_AND_ORGANIZATION ( #289, #103 ) ;
#210 = EDGE_CURVE ( 'NONE', #87, #101, #115, .T. ) ;
#211 = ORIENTED_EDGE ( 'NONE', *, *, #287, .F. ) ;
#212 = DIRECTION ( 'NONE',  ( 1.000000000000000000, 0.000000000000000000, 0.000000000000000000 ) ) ;
#213 = ADVANCED_BREP_SHAPE_REPRESENTATION ( '30a7', ( #241, #174 ), #272 ) ;
#214 = AXIS2_PLACEMENT_3D ( 'NONE', #192, #215, #269 ) ;
#215 = DIRECTION ( 'NONE',  ( 0.000000000000000000, 0.000000000000000000, 1.000000000000000000 ) ) ;
#216 = TOROIDAL_SURFACE ( 'NONE', #42, 6.200000000000001066, 0.2000000000000000111 ) ;
#217 = DIRECTION ( 'NONE',  ( 1.000000000000000000, 0.000000000000000000, 0.000000000000000000 ) ) ;
#218 = LINE ( 'NONE', #81, #119 ) ;
#219 = DIRECTION ( 'NONE',  ( -1.000000000000000000, 0.000000000000000000, 0.000000000000000000 ) ) ;
#220 = ORIENTED_EDGE ( 'NONE', *, *, #84, .T. ) ;
#221 = ORIENTED_EDGE ( 'NONE', *, *, #84, .F. ) ;
#222 = APPROVAL_PERSON_ORGANIZATION ( #93, #70, #182 ) ;
#223 = DIRECTION ( 'NONE',  ( -0.000000000000000000, -0.000000000000000000, -1.000000000000000000 ) ) ;
#224 = CARTESIAN_POINT ( 'NONE',  ( 0.000000000000000000, 0.000000000000000000, 407.0000000000000000 ) ) ;
#225 = FACE_OUTER_BOUND ( 'NONE', #63, .T. ) ;
#226 = UNCERTAINTY_MEASURE_WITH_UNIT (LENGTH_MEASURE( 1.000000000000000082E-05 ), #253, 'distance_accuracy_value', 'NONE');
#227 = EDGE_CURVE ( 'NONE', #164, #237, #238, .T. ) ;
#228 = PERSON_AND_ORGANIZATION ( #289, #103 ) ;
#229 = CIRCLE ( 'NONE', #1, 6.000000000000000888 ) ;
#230 = APPROVAL_ROLE ( '' ) ;
#231 = CALENDAR_DATE ( 2022, 7, 7 ) ;
#232 = PERSON_AND_ORGANIZATION_ROLE ( 'creator' ) ;
#233 = ADVANCED_FACE ( 'NONE', ( #153 ), #105, .T. ) ;
#234 = APPROVAL ( #94, 'NEURÈENÝ' ) ;
#235 = ORIENTED_EDGE ( 'NONE', *, *, #210, .T. ) ;
#236 = PRODUCT_DEFINITION_SHAPE ( 'NONE', 'NONE',  #121 ) ;
#237 = VERTEX_POINT ( 'NONE', #195 ) ;
#238 = CIRCLE ( 'NONE', #20, 9.000000000000000000 ) ;
#239 = CC_DESIGN_SECURITY_CLASSIFICATION ( #186, ( #25 ) ) ;
#240 = EDGE_LOOP ( 'NONE', ( #262, #148, #220, #168 ) ) ;
#241 = MANIFOLD_SOLID_BREP ( 'Zaoblit1', #102 ) ;
#242 = DIRECTION ( 'NONE',  ( -0.000000000000000000, -0.000000000000000000, -1.000000000000000000 ) ) ;
#243 = ORIENTED_EDGE ( 'NONE', *, *, #293, .F. ) ;
#244 = CARTESIAN_POINT ( 'NONE',  ( 0.000000000000000000, 0.000000000000000000, 7.199999999999984190 ) ) ;
#245 = CARTESIAN_POINT ( 'NONE',  ( -6.000000000000000888, 0.000000000000000000, 407.0000000000000000 ) ) ;
#246 = CARTESIAN_POINT ( 'NONE',  ( 0.000000000000000000, 0.000000000000000000, 7.000000000000000000 ) ) ;
#247 = EDGE_LOOP ( 'NONE', ( #133, #165, #55, #221 ) ) ;
#248 = ORIENTED_EDGE ( 'NONE', *, *, #39, .F. ) ;
#249 = CARTESIAN_POINT ( 'NONE',  ( 9.000000000000000000, 1.102182119232617714E-15, 0.000000000000000000 ) ) ;
#250 = VECTOR ( 'NONE', #242, 1000.000000000000000 ) ;
#251 = DIRECTION ( 'NONE',  ( 0.000000000000000000, 0.000000000000000000, 1.000000000000000000 ) ) ;
#252 = AXIS2_PLACEMENT_3D ( 'NONE', #155, #270, #217 ) ;
#253 =( LENGTH_UNIT ( ) NAMED_UNIT ( * ) SI_UNIT ( .MILLI., .METRE. ) );
#254 = APPROVAL_DATE_TIME ( #24, #99 ) ;
#255 = PERSON_AND_ORGANIZATION_ROLE ( 'design_owner' ) ;
#256 = APPROVAL_DATE_TIME ( #161, #70 ) ;
#257 = AXIS2_PLACEMENT_3D ( 'NONE', #277, #273, #128 ) ;
#258 = CC_DESIGN_PERSON_AND_ORGANIZATION_ASSIGNMENT ( #116, #232, ( #121 ) ) ;
#259 = COORDINATED_UNIVERSAL_TIME_OFFSET ( 1, 0, .AHEAD. ) ;
#260 = CC_DESIGN_PERSON_AND_ORGANIZATION_ASSIGNMENT ( #67, #45, ( #25 ) ) ;
#261 = DIRECTION ( 'NONE',  ( 0.000000000000000000, 0.000000000000000000, 1.000000000000000000 ) ) ;
#262 = ORIENTED_EDGE ( 'NONE', *, *, #288, .F. ) ;
#263 = EDGE_CURVE ( 'NONE', #170, #191, #127, .T. ) ;
#264 = ORIENTED_EDGE ( 'NONE', *, *, #227, .T. ) ;
#265 = ORIENTED_EDGE ( 'NONE', *, *, #210, .F. ) ;
#266 = LOCAL_TIME ( 14, 23, 8.000000000000000000, #71 ) ;
#267 = VERTEX_POINT ( 'NONE', #294 ) ;
#268 = DIRECTION ( 'NONE',  ( -1.000000000000000000, 1.224646799147353454E-16, 0.000000000000000000 ) ) ;
#269 = DIRECTION ( 'NONE',  ( 1.000000000000000000, 0.000000000000000000, 0.000000000000000000 ) ) ;
#270 = DIRECTION ( 'NONE',  ( 0.000000000000000000, 0.000000000000000000, 1.000000000000000000 ) ) ;
#271 = CYLINDRICAL_SURFACE ( 'NONE', #180, 6.000000000000000888 ) ;
#272 =( GEOMETRIC_REPRESENTATION_CONTEXT ( 3 ) GLOBAL_UNCERTAINTY_ASSIGNED_CONTEXT ( ( #226 ) ) GLOBAL_UNIT_ASSIGNED_CONTEXT ( ( #253, #69, #163 ) ) REPRESENTATION_CONTEXT ( 'NONE', 'WORKASPACE' ) );
#273 = DIRECTION ( 'NONE',  ( 0.000000000000000000, 0.000000000000000000, 1.000000000000000000 ) ) ;
#274 = DIRECTION ( 'NONE',  ( -1.000000000000000000, 0.000000000000000000, 0.000000000000000000 ) ) ;
#275 = DIRECTION ( 'NONE',  ( 1.000000000000000000, 0.000000000000000000, 0.000000000000000000 ) ) ;
#276 = ORIENTED_EDGE ( 'NONE', *, *, #16, .F. ) ;
#277 = CARTESIAN_POINT ( 'NONE',  ( 0.000000000000000000, 0.000000000000000000, 7.000000000000000000 ) ) ;
#278 = AXIS2_PLACEMENT_3D ( 'NONE', #30, #125, #212 ) ;
#279 = APPLICATION_CONTEXT ( 'configuration controlled 3d designs of mechanical parts and assemblies' ) ;
#280 = DIRECTION ( 'NONE',  ( 0.000000000000000000, 0.000000000000000000, 1.000000000000000000 ) ) ;
#281 = APPROVAL_STATUS ( 'not_yet_approved' ) ;
#282 = CALENDAR_DATE ( 2022, 7, 7 ) ;
#283 = EDGE_CURVE ( 'NONE', #156, #164, #177, .T. ) ;
#284 = AXIS2_PLACEMENT_3D ( 'NONE', #6, #126, #292 ) ;
#285 = VECTOR ( 'NONE', #296, 1000.000000000000000 ) ;
#286 = ORIENTED_EDGE ( 'NONE', *, *, #7, .F. ) ;
#287 = EDGE_CURVE ( 'NONE', #156, #57, #152, .T. ) ;
#288 = EDGE_CURVE ( 'NONE', #191, #267, #40, .T. ) ;
#289 = PERSON ( 'NEURÈENÝ', 'NEURÈENÝ', 'NEURÈENÝ', ('NEURÈENÝ'), ('NEURÈENÝ'), ('NEURÈENÝ') ) ;
#290 = AXIS2_PLACEMENT_3D ( 'NONE', #200, #150, #86 ) ;
#291 = FACE_OUTER_BOUND ( 'NONE', #196, .T. ) ;
#292 = DIRECTION ( 'NONE',  ( 0.000000000000000000, 0.000000000000000000, -1.000000000000000000 ) ) ;
#293 = EDGE_CURVE ( 'NONE', #101, #87, #2, .T. ) ;
#294 = CARTESIAN_POINT ( 'NONE',  ( 6.000000000000000888, 7.347880794884120722E-16, 7.199999999999984190 ) ) ;
#295 = CARTESIAN_POINT ( 'NONE',  ( -6.200000000000001066, 7.592810154713590821E-16, 7.199999999999984190 ) ) ;
#296 = DIRECTION ( 'NONE',  ( -0.000000000000000000, -0.000000000000000000, -1.000000000000000000 ) ) ;
#297 = CARTESIAN_POINT ( 'NONE',  ( -9.000000000000000000, 0.000000000000000000, 7.000000000000000000 ) ) ;
#298 = APPROVAL_PERSON_ORGANIZATION ( #22, #99, #230 ) ;
#299 = DIRECTION ( 'NONE',  ( 0.000000000000000000, 0.000000000000000000, 1.000000000000000000 ) ) ;
#300 = PLANE ( 'NONE',  #41 ) ;
#301 = CARTESIAN_POINT ( 'NONE',  ( 0.000000000000000000, 0.000000000000000000, 7.000000000000000000 ) ) ;
#302 = DIRECTION ( 'NONE',  ( 0.000000000000000000, 0.000000000000000000, 1.000000000000000000 ) ) ;
#303 = PRODUCT_RELATED_PRODUCT_CATEGORY ( 'detail', '', ( #44 ) ) ;
#304 = APPLICATION_PROTOCOL_DEFINITION ( 'international standard', 'config_control_design', 1994, #145 ) ;
#305 = SECURITY_CLASSIFICATION_LEVEL ( 'unclassified' ) ;
#306 = CIRCLE ( 'NONE', #214, 9.000000000000000000 ) ;
#307 = DESIGN_CONTEXT ( 'detailed design', #279, 'design' ) ;
ENDSEC;
END-ISO-10303-21;
