ISO-10303-21;
HEADER;
FILE_DESCRIPTION (( 'STEP AP203' ),
    '1' );
FILE_NAME ('88ff.STEP',
    '2022-07-07T12:31:40',
    ( '' ),
    ( '' ),
    'SwSTEP 2.0',
    'SolidWorks 2019',
    '' );
FILE_SCHEMA (( 'CONFIG_CONTROL_DESIGN' ));
ENDSEC;

DATA;
#1 = APPROVAL_STATUS ( 'not_yet_approved' ) ;
#2 = DATE_TIME_ROLE ( 'classification_date' ) ;
#3 = ORIENTED_EDGE ( 'NONE', *, *, #189, .F. ) ;
#4 = EDGE_LOOP ( 'NONE', ( #272, #165 ) ) ;
#5 = ORIENTED_EDGE ( 'NONE', *, *, #189, .T. ) ;
#6 = AXIS2_PLACEMENT_3D ( 'NONE', #138, #161, #183 ) ;
#7 = ORIENTED_EDGE ( 'NONE', *, *, #35, .F. ) ;
#8 = CARTESIAN_POINT ( 'NONE',  ( 0.000000000000000000, 0.000000000000000000, 5.000000000000000000 ) ) ;
#9 = AXIS2_PLACEMENT_3D ( 'NONE', #8, #123, #154 ) ;
#10 = CARTESIAN_POINT ( 'NONE',  ( 0.000000000000000000, 0.000000000000000000, 130.0000000000000000 ) ) ;
#11 = AXIS2_PLACEMENT_3D ( 'NONE', #107, #276, #201 ) ;
#12 = ORIENTED_EDGE ( 'NONE', *, *, #207, .F. ) ;
#13 = DIRECTION ( 'NONE',  ( -0.000000000000000000, -0.000000000000000000, -1.000000000000000000 ) ) ;
#14 = DIRECTION ( 'NONE',  ( 1.000000000000000000, 0.000000000000000000, -0.000000000000000000 ) ) ;
#15 = LINE ( 'NONE', #105, #87 ) ;
#16 = ORIENTED_EDGE ( 'NONE', *, *, #301, .F. ) ;
#17 = AXIS2_PLACEMENT_3D ( 'NONE', #58, #149, #76 ) ;
#18 = DIRECTION ( 'NONE',  ( -0.000000000000000000, -0.000000000000000000, -1.000000000000000000 ) ) ;
#19 = CARTESIAN_POINT ( 'NONE',  ( 4.250000000000000000, 5.204748896376250699E-16, 130.0000000000000000 ) ) ;
#20 = CIRCLE ( 'NONE', #17, 4.250000000000000000 ) ;
#21 = APPROVAL_DATE_TIME ( #24, #295 ) ;
#22 = PRODUCT_DEFINITION_SHAPE ( 'NONE', 'NONE',  #124 ) ;
#23 = ORGANIZATION ( 'NEURÈENÝ', 'NEURÈENÝ', '' ) ;
#24 = DATE_AND_TIME ( #206, #95 ) ;
#25 = PERSON_AND_ORGANIZATION ( #129, #23 ) ;
#26 = ORIENTED_EDGE ( 'NONE', *, *, #69, .F. ) ;
#27 = AXIS2_PLACEMENT_3D ( 'NONE', #10, #101, #14 ) ;
#28 = SECURITY_CLASSIFICATION ( '', '', #70 ) ;
#29 = EDGE_LOOP ( 'NONE', ( #234, #98 ) ) ;
#30 = ORIENTED_EDGE ( 'NONE', *, *, #207, .T. ) ;
#31 = EDGE_CURVE ( 'NONE', #197, #223, #208, .T. ) ;
#32 = CIRCLE ( 'NONE', #51, 4.450000000000000178 ) ;
#33 = DIRECTION ( 'NONE',  ( -1.000000000000000000, 0.000000000000000000, 0.000000000000000000 ) ) ;
#34 = CYLINDRICAL_SURFACE ( 'NONE', #192, 4.250000000000000000 ) ;
#35 = EDGE_CURVE ( 'NONE', #166, #265, #20, .T. ) ;
#36 = DIRECTION ( 'NONE',  ( 0.000000000000000000, 0.000000000000000000, 1.000000000000000000 ) ) ;
#37 = VERTEX_POINT ( 'NONE', #168 ) ;
#38 = DIRECTION ( 'NONE',  ( 0.000000000000000000, 0.000000000000000000, 1.000000000000000000 ) ) ;
#39 = DIRECTION ( 'NONE',  ( 1.000000000000000000, 0.000000000000000000, 0.000000000000000000 ) ) ;
#40 = DIRECTION ( 'NONE',  ( -0.000000000000000000, -0.000000000000000000, -1.000000000000000000 ) ) ;
#41 = PRODUCT ( '88ff', '88ff', '', ( #261 ) ) ;
#42 = DIRECTION ( 'NONE',  ( 1.000000000000000000, 0.000000000000000000, 0.000000000000000000 ) ) ;
#43 = DIRECTION ( 'NONE',  ( 0.000000000000000000, 0.000000000000000000, 1.000000000000000000 ) ) ;
#44 = APPLICATION_CONTEXT ( 'configuration controlled 3d designs of mechanical parts and assemblies' ) ;
#45 = APPROVAL_ROLE ( '' ) ;
#46 = ADVANCED_FACE ( 'NONE', ( #104 ), #215, .F. ) ;
#47 = PERSON_AND_ORGANIZATION ( #129, #23 ) ;
#48 = PERSON_AND_ORGANIZATION_ROLE ( 'design_owner' ) ;
#49 = ORIENTED_EDGE ( 'NONE', *, *, #251, .T. ) ;
#50 = ORIENTED_EDGE ( 'NONE', *, *, #135, .T. ) ;
#51 = AXIS2_PLACEMENT_3D ( 'NONE', #307, #40, #299 ) ;
#52 = EDGE_LOOP ( 'NONE', ( #12, #225, #132, #170 ) ) ;
#53 = CYLINDRICAL_SURFACE ( 'NONE', #9, 7.000000000000000000 ) ;
#54 = CC_DESIGN_APPROVAL ( #295, ( #124 ) ) ;
#55 = ADVANCED_FACE ( 'NONE', ( #268 ), #53, .T. ) ;
#56 = DIRECTION ( 'NONE',  ( 0.000000000000000000, 0.000000000000000000, 1.000000000000000000 ) ) ;
#57 = FACE_OUTER_BOUND ( 'NONE', #289, .T. ) ;
#58 = CARTESIAN_POINT ( 'NONE',  ( 0.000000000000000000, 0.000000000000000000, 130.0000000000000000 ) ) ;
#59 =( NAMED_UNIT ( * ) PLANE_ANGLE_UNIT ( ) SI_UNIT ( $, .RADIAN. ) );
#60 = DIRECTION ( 'NONE',  ( -1.000000000000000000, 0.000000000000000000, 0.000000000000000000 ) ) ;
#61 = CARTESIAN_POINT ( 'NONE',  ( 0.000000000000000000, 0.000000000000000000, 5.000000000000000000 ) ) ;
#62 = EDGE_LOOP ( 'NONE', ( #188, #122, #77, #190 ) ) ;
#63 = FACE_OUTER_BOUND ( 'NONE', #4, .T. ) ;
#64 = DIRECTION ( 'NONE',  ( 1.000000000000000000, 0.000000000000000000, 0.000000000000000000 ) ) ;
#65 = APPROVAL ( #1, 'NEURÈENÝ' ) ;
#66 = DATE_AND_TIME ( #211, #203 ) ;
#67 = CIRCLE ( 'NONE', #297, 7.000000000000000000 ) ;
#68 = APPROVAL_ROLE ( '' ) ;
#69 = EDGE_CURVE ( 'NONE', #265, #166, #120, .T. ) ;
#70 = SECURITY_CLASSIFICATION_LEVEL ( 'unclassified' ) ;
#71 = DATE_AND_TIME ( #262, #281 ) ;
#72 = AXIS2_PLACEMENT_3D ( 'NONE', #181, #199, #42 ) ;
#73 = APPROVAL_STATUS ( 'not_yet_approved' ) ;
#74 = CC_DESIGN_PERSON_AND_ORGANIZATION_ASSIGNMENT ( #230, #212, ( #232 ) ) ;
#75 = ORIENTED_EDGE ( 'NONE', *, *, #31, .T. ) ;
#76 = DIRECTION ( 'NONE',  ( 1.000000000000000000, 0.000000000000000000, 0.000000000000000000 ) ) ;
#77 = ORIENTED_EDGE ( 'NONE', *, *, #128, .T. ) ;
#78 = AXIS2_PLACEMENT_3D ( 'NONE', #204, #278, #126 ) ;
#79 = VECTOR ( 'NONE', #18, 1000.000000000000000 ) ;
#80 = CARTESIAN_POINT ( 'NONE',  ( -4.250000000000000000, 0.000000000000000000, 5.199999999999996625 ) ) ;
#81 = CARTESIAN_POINT ( 'NONE',  ( 4.250000000000000000, 5.204748896376250699E-16, 5.199999999999996625 ) ) ;
#82 = FACE_BOUND ( 'NONE', #266, .T. ) ;
#83 = DIRECTION ( 'NONE',  ( -0.000000000000000000, -0.000000000000000000, -1.000000000000000000 ) ) ;
#84 = CARTESIAN_POINT ( 'NONE',  ( 0.000000000000000000, 0.000000000000000000, 5.199999999999996625 ) ) ;
#85 = EDGE_LOOP ( 'NONE', ( #3, #26, #49, #30 ) ) ;
#86 = FACE_OUTER_BOUND ( 'NONE', #29, .T. ) ;
#87 = VECTOR ( 'NONE', #13, 1000.000000000000000 ) ;
#88 = CC_DESIGN_PERSON_AND_ORGANIZATION_ASSIGNMENT ( #25, #283, ( #124 ) ) ;
#89 = CARTESIAN_POINT ( 'NONE',  ( 0.000000000000000000, 0.000000000000000000, 5.000000000000000000 ) ) ;
#90 = DATE_AND_TIME ( #158, #228 ) ;
#91 =( GEOMETRIC_REPRESENTATION_CONTEXT ( 3 ) GLOBAL_UNCERTAINTY_ASSIGNED_CONTEXT ( ( #144 ) ) GLOBAL_UNIT_ASSIGNED_CONTEXT ( ( #150, #59, #187 ) ) REPRESENTATION_CONTEXT ( 'NONE', 'WORKASPACE' ) );
#92 = DATE_TIME_ROLE ( 'creation_date' ) ;
#93 = PERSON_AND_ORGANIZATION ( #129, #23 ) ;
#94 = PERSON_AND_ORGANIZATION_ROLE ( 'creator' ) ;
#95 = LOCAL_TIME ( 14, 31, 40.00000000000000000, #140 ) ;
#96 = ADVANCED_FACE ( 'NONE', ( #247 ), #300, .T. ) ;
#97 = ADVANCED_FACE ( 'NONE', ( #244 ), #34, .T. ) ;
#98 = ORIENTED_EDGE ( 'NONE', *, *, #267, .T. ) ;
#99 = ADVANCED_FACE ( 'NONE', ( #125 ), #294, .T. ) ;
#100 = VERTEX_POINT ( 'NONE', #81 ) ;
#101 = DIRECTION ( 'NONE',  ( 0.000000000000000000, 0.000000000000000000, 1.000000000000000000 ) ) ;
#102 = APPROVAL_PERSON_ORGANIZATION ( #47, #295, #68 ) ;
#103 = CARTESIAN_POINT ( 'NONE',  ( -7.000000000000000000, 0.000000000000000000, 0.000000000000000000 ) ) ;
#104 = FACE_OUTER_BOUND ( 'NONE', #163, .T. ) ;
#105 = CARTESIAN_POINT ( 'NONE',  ( -7.000000000000000000, 0.000000000000000000, 5.000000000000000000 ) ) ;
#106 = DIRECTION ( 'NONE',  ( -0.000000000000000000, -0.000000000000000000, -1.000000000000000000 ) ) ;
#107 = CARTESIAN_POINT ( 'NONE',  ( 0.000000000000000000, 0.000000000000000000, 130.0000000000000000 ) ) ;
#108 = CARTESIAN_POINT ( 'NONE',  ( 0.000000000000000000, 0.000000000000000000, 5.000000000000000000 ) ) ;
#109 = CARTESIAN_POINT ( 'NONE',  ( 0.000000000000000000, 0.000000000000000000, 5.199999999999996625 ) ) ;
#110 = CC_DESIGN_APPROVAL ( #236, ( #232 ) ) ;
#111 = APPROVAL_DATE_TIME ( #71, #65 ) ;
#112 = APPROVAL_STATUS ( 'not_yet_approved' ) ;
#113 = COORDINATED_UNIVERSAL_TIME_OFFSET ( 1, 0, .AHEAD. ) ;
#114 = AXIS2_PLACEMENT_3D ( 'NONE', #133, #43, #226 ) ;
#115 = DATE_AND_TIME ( #116, #216 ) ;
#116 = CALENDAR_DATE ( 2022, 7, 7 ) ;
#117 = EDGE_CURVE ( 'NONE', #275, #223, #237, .T. ) ;
#118 = CC_DESIGN_PERSON_AND_ORGANIZATION_ASSIGNMENT ( #235, #164, ( #28 ) ) ;
#119 = ORIENTED_EDGE ( 'NONE', *, *, #243, .T. ) ;
#120 = CIRCLE ( 'NONE', #177, 4.250000000000000000 ) ;
#121 = AXIS2_PLACEMENT_3D ( 'NONE', #109, #176, #134 ) ;
#122 = ORIENTED_EDGE ( 'NONE', *, *, #264, .T. ) ;
#123 = DIRECTION ( 'NONE',  ( -0.000000000000000000, -0.000000000000000000, -1.000000000000000000 ) ) ;
#124 = PRODUCT_DEFINITION ( 'NEZNÁMÝ', '', #232, #214 ) ;
#125 = FACE_OUTER_BOUND ( 'NONE', #130, .T. ) ;
#126 = DIRECTION ( 'NONE',  ( 0.000000000000000000, 0.000000000000000000, -1.000000000000000000 ) ) ;
#127 = DIRECTION ( 'NONE',  ( 1.000000000000000000, 0.000000000000000000, 0.000000000000000000 ) ) ;
#128 = EDGE_CURVE ( 'NONE', #263, #287, #142, .T. ) ;
#129 = PERSON ( 'NEURÈENÝ', 'NEURÈENÝ', 'NEURÈENÝ', ('NEURÈENÝ'), ('NEURÈENÝ'), ('NEURÈENÝ') ) ;
#130 = EDGE_LOOP ( 'NONE', ( #175, #252 ) ) ;
#131 = CARTESIAN_POINT ( 'NONE',  ( -4.250000000000000000, 0.000000000000000000, 130.0000000000000000 ) ) ;
#132 = ORIENTED_EDGE ( 'NONE', *, *, #31, .F. ) ;
#133 = CARTESIAN_POINT ( 'NONE',  ( 0.000000000000000000, 0.000000000000000000, 0.000000000000000000 ) ) ;
#134 = DIRECTION ( 'NONE',  ( 1.000000000000000000, 0.000000000000000000, 0.000000000000000000 ) ) ;
#135 = EDGE_CURVE ( 'NONE', #100, #275, #146, .T. ) ;
#136 = VECTOR ( 'NONE', #174, 1000.000000000000000 ) ;
#137 = AXIS2_PLACEMENT_3D ( 'NONE', #147, #56, #127 ) ;
#138 = CARTESIAN_POINT ( 'NONE',  ( 0.000000000000000000, 0.000000000000000000, 0.000000000000000000 ) ) ;
#139 = ADVANCED_FACE ( 'NONE', ( #305 ), #162, .F. ) ;
#140 = COORDINATED_UNIVERSAL_TIME_OFFSET ( 1, 0, .AHEAD. ) ;
#141 = ORIENTED_EDGE ( 'NONE', *, *, #306, .T. ) ;
#142 = CIRCLE ( 'NONE', #184, 7.000000000000000000 ) ;
#143 = CC_DESIGN_APPROVAL ( #65, ( #28 ) ) ;
#144 = UNCERTAINTY_MEASURE_WITH_UNIT (LENGTH_MEASURE( 1.000000000000000082E-05 ), #150, 'distance_accuracy_value', 'NONE');
#145 = CARTESIAN_POINT ( 'NONE',  ( 0.000000000000000000, 0.000000000000000000, 130.0000000000000000 ) ) ;
#146 = CIRCLE ( 'NONE', #171, 4.250000000000000000 ) ;
#147 = CARTESIAN_POINT ( 'NONE',  ( 0.000000000000000000, 0.000000000000000000, 5.199999999999996625 ) ) ;
#148 = PLANE ( 'NONE',  #220 ) ;
#149 = DIRECTION ( 'NONE',  ( 0.000000000000000000, 0.000000000000000000, 1.000000000000000000 ) ) ;
#150 =( LENGTH_UNIT ( ) NAMED_UNIT ( * ) SI_UNIT ( .MILLI., .METRE. ) );
#151 = AXIS2_PLACEMENT_3D ( 'NONE', #108, #106, #178 ) ;
#152 = CARTESIAN_POINT ( 'NONE',  ( -4.450000000000000178, 5.449678256205721784E-16, 5.199999999999996625 ) ) ;
#153 = DIRECTION ( 'NONE',  ( 1.000000000000000000, 0.000000000000000000, -0.000000000000000000 ) ) ;
#154 = DIRECTION ( 'NONE',  ( -1.000000000000000000, 0.000000000000000000, 0.000000000000000000 ) ) ;
#155 = DIRECTION ( 'NONE',  ( 1.000000000000000000, 0.000000000000000000, -0.000000000000000000 ) ) ;
#156 = LINE ( 'NONE', #224, #136 ) ;
#157 = AXIS2_PLACEMENT_3D ( 'NONE', #273, #83, #33 ) ;
#158 = CALENDAR_DATE ( 2022, 7, 7 ) ;
#159 = APPROVAL_DATE_TIME ( #115, #236 ) ;
#160 = COORDINATED_UNIVERSAL_TIME_OFFSET ( 1, 0, .AHEAD. ) ;
#161 = DIRECTION ( 'NONE',  ( 0.000000000000000000, 0.000000000000000000, 1.000000000000000000 ) ) ;
#162 = TOROIDAL_SURFACE ( 'NONE', #121, 4.450000000000000178, 0.2000000000000000111 ) ;
#163 = EDGE_LOOP ( 'NONE', ( #200, #241, #141, #270 ) ) ;
#164 = PERSON_AND_ORGANIZATION_ROLE ( 'classification_officer' ) ;
#165 = ORIENTED_EDGE ( 'NONE', *, *, #128, .F. ) ;
#166 = VERTEX_POINT ( 'NONE', #180 ) ;
#167 = ORIENTED_EDGE ( 'NONE', *, *, #264, .F. ) ;
#168 = CARTESIAN_POINT ( 'NONE',  ( -7.000000000000000000, 0.000000000000000000, 5.000000000000000000 ) ) ;
#169 = CC_DESIGN_DATE_AND_TIME_ASSIGNMENT ( #90, #92, ( #124 ) ) ;
#170 = ORIENTED_EDGE ( 'NONE', *, *, #306, .F. ) ;
#171 = AXIS2_PLACEMENT_3D ( 'NONE', #277, #202, #64 ) ;
#172 = CARTESIAN_POINT ( 'NONE',  ( 7.000000000000000000, 8.572527594031473190E-16, 5.000000000000000000 ) ) ;
#173 = CARTESIAN_POINT ( 'NONE',  ( 0.000000000000000000, 0.000000000000000000, 0.000000000000000000 ) ) ;
#174 = DIRECTION ( 'NONE',  ( -0.000000000000000000, -0.000000000000000000, -1.000000000000000000 ) ) ;
#175 = ORIENTED_EDGE ( 'NONE', *, *, #69, .T. ) ;
#176 = DIRECTION ( 'NONE',  ( 0.000000000000000000, 0.000000000000000000, 1.000000000000000000 ) ) ;
#177 = AXIS2_PLACEMENT_3D ( 'NONE', #145, #245, #221 ) ;
#178 = DIRECTION ( 'NONE',  ( 1.000000000000000000, 0.000000000000000000, 0.000000000000000000 ) ) ;
#179 = CYLINDRICAL_SURFACE ( 'NONE', #11, 4.250000000000000000 ) ;
#180 = CARTESIAN_POINT ( 'NONE',  ( 4.250000000000000000, 5.204748896376250699E-16, 130.0000000000000000 ) ) ;
#181 = CARTESIAN_POINT ( 'NONE',  ( 0.000000000000000000, 0.000000000000000000, 5.000000000000000000 ) ) ;
#182 = CC_DESIGN_PERSON_AND_ORGANIZATION_ASSIGNMENT ( #258, #94, ( #232 ) ) ;
#183 = DIRECTION ( 'NONE',  ( 1.000000000000000000, 0.000000000000000000, 0.000000000000000000 ) ) ;
#184 = AXIS2_PLACEMENT_3D ( 'NONE', #173, #249, #39 ) ;
#185 = CC_DESIGN_SECURITY_CLASSIFICATION ( #28, ( #232 ) ) ;
#186 = APPROVAL_ROLE ( '' ) ;
#187 =( NAMED_UNIT ( * ) SI_UNIT ( $, .STERADIAN. ) SOLID_ANGLE_UNIT ( ) );
#188 = ORIENTED_EDGE ( 'NONE', *, *, #267, .F. ) ;
#189 = EDGE_CURVE ( 'NONE', #166, #100, #255, .T. ) ;
#190 = ORIENTED_EDGE ( 'NONE', *, *, #209, .F. ) ;
#191 = DIRECTION ( 'NONE',  ( -0.000000000000000000, -0.000000000000000000, -1.000000000000000000 ) ) ;
#192 = AXIS2_PLACEMENT_3D ( 'NONE', #219, #191, #60 ) ;
#193 = CARTESIAN_POINT ( 'NONE',  ( -4.450000000000000178, 5.449678256205721784E-16, 4.999999999999998224 ) ) ;
#194 = CIRCLE ( 'NONE', #257, 4.250000000000000000 ) ;
#195 = DIRECTION ( 'NONE',  ( -1.000000000000000000, 1.224646799147353454E-16, 0.000000000000000000 ) ) ;
#196 = CARTESIAN_POINT ( 'NONE',  ( 4.450000000000000178, 0.000000000000000000, 4.999999999999998224 ) ) ;
#197 = VERTEX_POINT ( 'NONE', #196 ) ;
#198 = APPLICATION_CONTEXT ( 'configuration controlled 3d designs of mechanical parts and assemblies' ) ;
#199 = DIRECTION ( 'NONE',  ( 0.000000000000000000, 0.000000000000000000, 1.000000000000000000 ) ) ;
#200 = ORIENTED_EDGE ( 'NONE', *, *, #117, .F. ) ;
#201 = DIRECTION ( 'NONE',  ( -1.000000000000000000, 0.000000000000000000, 0.000000000000000000 ) ) ;
#202 = DIRECTION ( 'NONE',  ( 0.000000000000000000, 0.000000000000000000, 1.000000000000000000 ) ) ;
#203 = LOCAL_TIME ( 14, 31, 40.00000000000000000, #160 ) ;
#204 = CARTESIAN_POINT ( 'NONE',  ( 4.450000000000000178, 0.000000000000000000, 5.199999999999996625 ) ) ;
#205 = SHAPE_DEFINITION_REPRESENTATION ( #22, #259 ) ;
#206 = CALENDAR_DATE ( 2022, 7, 7 ) ;
#207 = EDGE_CURVE ( 'NONE', #275, #100, #194, .T. ) ;
#208 = CIRCLE ( 'NONE', #151, 4.450000000000000178 ) ;
#209 = EDGE_CURVE ( 'NONE', #37, #287, #15, .T. ) ;
#210 = COORDINATED_UNIVERSAL_TIME_OFFSET ( 1, 0, .AHEAD. ) ;
#211 = CALENDAR_DATE ( 2022, 7, 7 ) ;
#212 = PERSON_AND_ORGANIZATION_ROLE ( 'design_supplier' ) ;
#213 = CIRCLE ( 'NONE', #114, 7.000000000000000000 ) ;
#214 = DESIGN_CONTEXT ( 'detailed design', #44, 'design' ) ;
#215 = TOROIDAL_SURFACE ( 'NONE', #137, 4.450000000000000178, 0.2000000000000000111 ) ;
#216 = LOCAL_TIME ( 14, 31, 40.00000000000000000, #113 ) ;
#217 = ORIENTED_EDGE ( 'NONE', *, *, #251, .F. ) ;
#218 = EDGE_CURVE ( 'NONE', #223, #197, #32, .T. ) ;
#219 = CARTESIAN_POINT ( 'NONE',  ( 0.000000000000000000, 0.000000000000000000, 130.0000000000000000 ) ) ;
#220 = AXIS2_PLACEMENT_3D ( 'NONE', #304, #36, #155 ) ;
#221 = DIRECTION ( 'NONE',  ( 1.000000000000000000, 0.000000000000000000, 0.000000000000000000 ) ) ;
#222 = PLANE ( 'NONE',  #248 ) ;
#223 = VERTEX_POINT ( 'NONE', #193 ) ;
#224 = CARTESIAN_POINT ( 'NONE',  ( -4.250000000000000000, 0.000000000000000000, 130.0000000000000000 ) ) ;
#225 = ORIENTED_EDGE ( 'NONE', *, *, #117, .T. ) ;
#226 = DIRECTION ( 'NONE',  ( 1.000000000000000000, 0.000000000000000000, 0.000000000000000000 ) ) ;
#227 = CC_DESIGN_DATE_AND_TIME_ASSIGNMENT ( #66, #2, ( #28 ) ) ;
#228 = LOCAL_TIME ( 14, 31, 40.00000000000000000, #210 ) ;
#229 = CARTESIAN_POINT ( 'NONE',  ( 7.000000000000000000, 8.572527594031473190E-16, 5.000000000000000000 ) ) ;
#230 = PERSON_AND_ORGANIZATION ( #129, #23 ) ;
#231 = APPLICATION_PROTOCOL_DEFINITION ( 'international standard', 'config_control_design', 1994, #198 ) ;
#232 = PRODUCT_DEFINITION_FORMATION_WITH_SPECIFIED_SOURCE ( 'LIBOVOLNÝ', '', #41, .NOT_KNOWN. ) ;
#233 = PERSON_AND_ORGANIZATION ( #129, #23 ) ;
#234 = ORIENTED_EDGE ( 'NONE', *, *, #301, .T. ) ;
#235 = PERSON_AND_ORGANIZATION ( #129, #23 ) ;
#236 = APPROVAL ( #73, 'NEURÈENÝ' ) ;
#237 = CIRCLE ( 'NONE', #279, 0.1999999999999996503 ) ;
#238 = APPROVAL_PERSON_ORGANIZATION ( #93, #65, #186 ) ;
#239 = VERTEX_POINT ( 'NONE', #172 ) ;
#240 = CC_DESIGN_PERSON_AND_ORGANIZATION_ASSIGNMENT ( #233, #48, ( #41 ) ) ;
#241 = ORIENTED_EDGE ( 'NONE', *, *, #135, .F. ) ;
#242 = VECTOR ( 'NONE', #302, 1000.000000000000000 ) ;
#243 = EDGE_CURVE ( 'NONE', #287, #263, #213, .T. ) ;
#244 = FACE_OUTER_BOUND ( 'NONE', #85, .T. ) ;
#245 = DIRECTION ( 'NONE',  ( 0.000000000000000000, 0.000000000000000000, 1.000000000000000000 ) ) ;
#246 = DIRECTION ( 'NONE',  ( 0.000000000000000000, 0.000000000000000000, 1.000000000000000000 ) ) ;
#247 = FACE_OUTER_BOUND ( 'NONE', #62, .T. ) ;
#248 = AXIS2_PLACEMENT_3D ( 'NONE', #61, #254, #153 ) ;
#249 = DIRECTION ( 'NONE',  ( 0.000000000000000000, 0.000000000000000000, 1.000000000000000000 ) ) ;
#250 = LINE ( 'NONE', #229, #79 ) ;
#251 = EDGE_CURVE ( 'NONE', #265, #275, #156, .T. ) ;
#252 = ORIENTED_EDGE ( 'NONE', *, *, #35, .T. ) ;
#253 = PRODUCT_RELATED_PRODUCT_CATEGORY ( 'detail', '', ( #41 ) ) ;
#254 = DIRECTION ( 'NONE',  ( 0.000000000000000000, 0.000000000000000000, 1.000000000000000000 ) ) ;
#255 = LINE ( 'NONE', #19, #242 ) ;
#256 = ADVANCED_FACE ( 'NONE', ( #82, #86 ), #222, .T. ) ;
#257 = AXIS2_PLACEMENT_3D ( 'NONE', #84, #246, #274 ) ;
#258 = PERSON_AND_ORGANIZATION ( #129, #23 ) ;
#259 = ADVANCED_BREP_SHAPE_REPRESENTATION ( '88ff', ( #284, #6 ), #91 ) ;
#260 = CLOSED_SHELL ( 'NONE', ( #139, #288, #96, #55, #256, #293, #97, #99, #46 ) ) ;
#261 = MECHANICAL_CONTEXT ( 'NONE', #198, 'mechanical' ) ;
#262 = CALENDAR_DATE ( 2022, 7, 7 ) ;
#263 = VERTEX_POINT ( 'NONE', #271 ) ;
#264 = EDGE_CURVE ( 'NONE', #239, #263, #250, .T. ) ;
#265 = VERTEX_POINT ( 'NONE', #131 ) ;
#266 = EDGE_LOOP ( 'NONE', ( #75, #291 ) ) ;
#267 = EDGE_CURVE ( 'NONE', #239, #37, #67, .T. ) ;
#268 = FACE_OUTER_BOUND ( 'NONE', #298, .T. ) ;
#269 = APPROVAL_PERSON_ORGANIZATION ( #280, #236, #45 ) ;
#270 = ORIENTED_EDGE ( 'NONE', *, *, #218, .F. ) ;
#271 = CARTESIAN_POINT ( 'NONE',  ( 7.000000000000000000, 8.572527594031473190E-16, 0.000000000000000000 ) ) ;
#272 = ORIENTED_EDGE ( 'NONE', *, *, #243, .F. ) ;
#273 = CARTESIAN_POINT ( 'NONE',  ( 0.000000000000000000, 0.000000000000000000, 5.000000000000000000 ) ) ;
#274 = DIRECTION ( 'NONE',  ( 1.000000000000000000, 0.000000000000000000, 0.000000000000000000 ) ) ;
#275 = VERTEX_POINT ( 'NONE', #80 ) ;
#276 = DIRECTION ( 'NONE',  ( -0.000000000000000000, -0.000000000000000000, -1.000000000000000000 ) ) ;
#277 = CARTESIAN_POINT ( 'NONE',  ( 0.000000000000000000, 0.000000000000000000, 5.199999999999996625 ) ) ;
#278 = DIRECTION ( 'NONE',  ( 0.000000000000000000, -1.000000000000000000, 0.000000000000000000 ) ) ;
#279 = AXIS2_PLACEMENT_3D ( 'NONE', #152, #303, #195 ) ;
#280 = PERSON_AND_ORGANIZATION ( #129, #23 ) ;
#281 = LOCAL_TIME ( 14, 31, 40.00000000000000000, #285 ) ;
#282 = APPLICATION_PROTOCOL_DEFINITION ( 'international standard', 'config_control_design', 1994, #44 ) ;
#283 = PERSON_AND_ORGANIZATION_ROLE ( 'creator' ) ;
#284 = MANIFOLD_SOLID_BREP ( 'Zaoblit1', #260 ) ;
#285 = COORDINATED_UNIVERSAL_TIME_OFFSET ( 1, 0, .AHEAD. ) ;
#286 = CIRCLE ( 'NONE', #72, 7.000000000000000000 ) ;
#287 = VERTEX_POINT ( 'NONE', #103 ) ;
#288 = ADVANCED_FACE ( 'NONE', ( #57 ), #179, .T. ) ;
#289 = EDGE_LOOP ( 'NONE', ( #7, #5, #50, #217 ) ) ;
#290 = CIRCLE ( 'NONE', #78, 0.1999999999999996503 ) ;
#291 = ORIENTED_EDGE ( 'NONE', *, *, #218, .T. ) ;
#292 = ORIENTED_EDGE ( 'NONE', *, *, #209, .T. ) ;
#293 = ADVANCED_FACE ( 'NONE', ( #63 ), #148, .F. ) ;
#294 = PLANE ( 'NONE',  #27 ) ;
#295 = APPROVAL ( #112, 'NEURÈENÝ' ) ;
#296 = DIRECTION ( 'NONE',  ( 1.000000000000000000, 0.000000000000000000, 0.000000000000000000 ) ) ;
#297 = AXIS2_PLACEMENT_3D ( 'NONE', #89, #38, #296 ) ;
#298 = EDGE_LOOP ( 'NONE', ( #167, #16, #292, #119 ) ) ;
#299 = DIRECTION ( 'NONE',  ( 1.000000000000000000, 0.000000000000000000, 0.000000000000000000 ) ) ;
#300 = CYLINDRICAL_SURFACE ( 'NONE', #157, 7.000000000000000000 ) ;
#301 = EDGE_CURVE ( 'NONE', #37, #239, #286, .T. ) ;
#302 = DIRECTION ( 'NONE',  ( -0.000000000000000000, -0.000000000000000000, -1.000000000000000000 ) ) ;
#303 = DIRECTION ( 'NONE',  ( 1.224646799147353207E-16, 1.000000000000000000, -0.000000000000000000 ) ) ;
#304 = CARTESIAN_POINT ( 'NONE',  ( 0.000000000000000000, 0.000000000000000000, 0.000000000000000000 ) ) ;
#305 = FACE_OUTER_BOUND ( 'NONE', #52, .T. ) ;
#306 = EDGE_CURVE ( 'NONE', #100, #197, #290, .T. ) ;
#307 = CARTESIAN_POINT ( 'NONE',  ( 0.000000000000000000, 0.000000000000000000, 5.000000000000000000 ) ) ;
ENDSEC;
END-ISO-10303-21;
