ISO-10303-21;
HEADER;
FILE_DESCRIPTION (( 'STEP AP203' ),
    '1' );
FILE_NAME ('3be7.STEP',
    '2023-02-12T11:32:58',
    ( '' ),
    ( '' ),
    'SwSTEP 2.0',
    'SolidWorks 2019',
    '' );
FILE_SCHEMA (( 'CONFIG_CONTROL_DESIGN' ));
ENDSEC;

DATA;
#1 =( NAMED_UNIT ( * ) SI_UNIT ( $, .STERADIAN. ) SOLID_ANGLE_UNIT ( ) );
#2 = AXIS2_PLACEMENT_3D ( 'NONE', #202, #47, #25 ) ;
#3 = ADVANCED_FACE ( 'NONE', ( #66 ), #117, .F. ) ;
#4 = DIRECTION ( 'NONE',  ( 0.000000000000000000, 0.000000000000000000, 1.000000000000000000 ) ) ;
#5 = PERSON ( 'NEURÈENÝ', 'NEURÈENÝ', 'NEURÈENÝ', ('NEURÈENÝ'), ('NEURÈENÝ'), ('NEURÈENÝ') ) ;
#6 = AXIS2_PLACEMENT_3D ( 'NONE', #82, #154, #225 ) ;
#7 = COORDINATED_UNIVERSAL_TIME_OFFSET ( 1, 0, .AHEAD. ) ;
#8 = ORIENTED_EDGE ( 'NONE', *, *, #252, .T. ) ;
#9 = LOCAL_TIME ( 12, 32, 58.00000000000000000, #215 ) ;
#10 = PERSON_AND_ORGANIZATION ( #5, #173 ) ;
#11 = VERTEX_POINT ( 'NONE', #99 ) ;
#12 = DIRECTION ( 'NONE',  ( -1.000000000000000000, 0.000000000000000000, 0.000000000000000000 ) ) ;
#13 = DATE_AND_TIME ( #55, #187 ) ;
#14 = EDGE_LOOP ( 'NONE', ( #248, #199, #31, #38 ) ) ;
#15 = DIRECTION ( 'NONE',  ( 1.000000000000000000, 0.000000000000000000, 0.000000000000000000 ) ) ;
#16 = PERSON_AND_ORGANIZATION ( #5, #173 ) ;
#17 = PRODUCT_DEFINITION_SHAPE ( 'NONE', 'NONE',  #126 ) ;
#18 = COORDINATED_UNIVERSAL_TIME_OFFSET ( 1, 0, .AHEAD. ) ;
#19 = SHAPE_DEFINITION_REPRESENTATION ( #17, #243 ) ;
#20 = DIRECTION ( 'NONE',  ( -1.000000000000000000, 0.000000000000000000, 0.000000000000000000 ) ) ;
#21 = FACE_OUTER_BOUND ( 'NONE', #14, .T. ) ;
#22 = ORIENTED_EDGE ( 'NONE', *, *, #43, .F. ) ;
#23 = VECTOR ( 'NONE', #211, 1000.000000000000000 ) ;
#24 = SECURITY_CLASSIFICATION ( '', '', #210 ) ;
#25 = DIRECTION ( 'NONE',  ( 1.000000000000000000, 0.000000000000000000, -0.000000000000000000 ) ) ;
#26 = CARTESIAN_POINT ( 'NONE',  ( 0.000000000000000000, 0.000000000000000000, 5.000000000000000000 ) ) ;
#27 = CC_DESIGN_PERSON_AND_ORGANIZATION_ASSIGNMENT ( #92, #245, ( #126 ) ) ;
#28 = DIRECTION ( 'NONE',  ( 0.000000000000000000, 0.000000000000000000, 1.000000000000000000 ) ) ;
#29 = APPLICATION_PROTOCOL_DEFINITION ( 'international standard', 'config_control_design', 1994, #209 ) ;
#30 = CALENDAR_DATE ( 2023, 12, 2 ) ;
#31 = ORIENTED_EDGE ( 'NONE', *, *, #179, .T. ) ;
#32 = PERSON_AND_ORGANIZATION ( #5, #173 ) ;
#33 = APPROVAL_DATE_TIME ( #229, #208 ) ;
#34 = EDGE_LOOP ( 'NONE', ( #158, #78, #135, #41 ) ) ;
#35 = DIRECTION ( 'NONE',  ( 0.000000000000000000, 0.000000000000000000, 1.000000000000000000 ) ) ;
#36 = ADVANCED_FACE ( 'NONE', ( #58 ), #101, .T. ) ;
#37 = ADVANCED_FACE ( 'NONE', ( #77 ), #74, .T. ) ;
#38 = ORIENTED_EDGE ( 'NONE', *, *, #203, .T. ) ;
#39 = CARTESIAN_POINT ( 'NONE',  ( -3.100000000000000089, 0.000000000000000000, 5.000000000000000000 ) ) ;
#40 = AXIS2_PLACEMENT_3D ( 'NONE', #108, #28, #180 ) ;
#41 = ORIENTED_EDGE ( 'NONE', *, *, #221, .T. ) ;
#42 = VERTEX_POINT ( 'NONE', #146 ) ;
#43 = EDGE_CURVE ( 'NONE', #93, #42, #120, .T. ) ;
#44 = DIRECTION ( 'NONE',  ( 1.000000000000000000, 0.000000000000000000, 0.000000000000000000 ) ) ;
#45 = CC_DESIGN_APPROVAL ( #208, ( #126 ) ) ;
#46 = MECHANICAL_CONTEXT ( 'NONE', #209, 'mechanical' ) ;
#47 = DIRECTION ( 'NONE',  ( 0.000000000000000000, 0.000000000000000000, 1.000000000000000000 ) ) ;
#48 = CARTESIAN_POINT ( 'NONE',  ( 0.000000000000000000, 0.000000000000000000, 0.000000000000000000 ) ) ;
#49 = APPROVAL_PERSON_ORGANIZATION ( #32, #137, #136 ) ;
#50 = DESIGN_CONTEXT ( 'detailed design', #254, 'design' ) ;
#51 = AXIS2_PLACEMENT_3D ( 'NONE', #85, #157, #151 ) ;
#52 = DIRECTION ( 'NONE',  ( 1.000000000000000000, 0.000000000000000000, 0.000000000000000000 ) ) ;
#53 = PERSON_AND_ORGANIZATION ( #5, #173 ) ;
#54 = LINE ( 'NONE', #128, #23 ) ;
#55 = CALENDAR_DATE ( 2023, 12, 2 ) ;
#56 = CC_DESIGN_PERSON_AND_ORGANIZATION_ASSIGNMENT ( #72, #185, ( #113 ) ) ;
#57 = ORIENTED_EDGE ( 'NONE', *, *, #161, .F. ) ;
#58 = FACE_OUTER_BOUND ( 'NONE', #34, .T. ) ;
#59 = PERSON_AND_ORGANIZATION ( #5, #173 ) ;
#60 = VERTEX_POINT ( 'NONE', #253 ) ;
#61 = AXIS2_PLACEMENT_3D ( 'NONE', #235, #88, #123 ) ;
#62 = AXIS2_PLACEMENT_3D ( 'NONE', #116, #170, #250 ) ;
#63 = LOCAL_TIME ( 12, 32, 58.00000000000000000, #7 ) ;
#64 = EDGE_CURVE ( 'NONE', #11, #163, #198, .T. ) ;
#65 = DIRECTION ( 'NONE',  ( -0.000000000000000000, -0.000000000000000000, -1.000000000000000000 ) ) ;
#66 = FACE_OUTER_BOUND ( 'NONE', #144, .T. ) ;
#67 = DIRECTION ( 'NONE',  ( 1.000000000000000000, 0.000000000000000000, 0.000000000000000000 ) ) ;
#68 = ORIENTED_EDGE ( 'NONE', *, *, #203, .F. ) ;
#69 = CC_DESIGN_APPROVAL ( #191, ( #113 ) ) ;
#70 = CC_DESIGN_DATE_AND_TIME_ASSIGNMENT ( #13, #98, ( #126 ) ) ;
#71 = DIRECTION ( 'NONE',  ( -0.000000000000000000, -0.000000000000000000, -1.000000000000000000 ) ) ;
#72 = PERSON_AND_ORGANIZATION ( #5, #173 ) ;
#73 = COORDINATED_UNIVERSAL_TIME_OFFSET ( 1, 0, .AHEAD. ) ;
#74 = CYLINDRICAL_SURFACE ( 'NONE', #105, 3.100000000000000089 ) ;
#75 = VERTEX_POINT ( 'NONE', #79 ) ;
#76 = EDGE_CURVE ( 'NONE', #186, #75, #251, .T. ) ;
#77 = FACE_OUTER_BOUND ( 'NONE', #238, .T. ) ;
#78 = ORIENTED_EDGE ( 'NONE', *, *, #86, .F. ) ;
#79 = CARTESIAN_POINT ( 'NONE',  ( 3.100000000000000089, 3.796405077356794918E-16, 5.000000000000000000 ) ) ;
#80 = PERSON_AND_ORGANIZATION_ROLE ( 'design_owner' ) ;
#81 = EDGE_LOOP ( 'NONE', ( #175, #83 ) ) ;
#82 = CARTESIAN_POINT ( 'NONE',  ( 0.000000000000000000, 0.000000000000000000, 200.0000000000000000 ) ) ;
#83 = ORIENTED_EDGE ( 'NONE', *, *, #121, .T. ) ;
#84 =( NAMED_UNIT ( * ) PLANE_ANGLE_UNIT ( ) SI_UNIT ( $, .RADIAN. ) );
#85 = CARTESIAN_POINT ( 'NONE',  ( 0.000000000000000000, 0.000000000000000000, 5.000000000000000000 ) ) ;
#86 = EDGE_CURVE ( 'NONE', #60, #186, #236, .T. ) ;
#87 = AXIS2_PLACEMENT_3D ( 'NONE', #26, #35, #52 ) ;
#88 = DIRECTION ( 'NONE',  ( 0.000000000000000000, 0.000000000000000000, 1.000000000000000000 ) ) ;
#89 = VECTOR ( 'NONE', #100, 1000.000000000000000 ) ;
#90 = CALENDAR_DATE ( 2023, 12, 2 ) ;
#91 = CARTESIAN_POINT ( 'NONE',  ( 6.000000000000000888, 7.347880794884120722E-16, 5.000000000000000000 ) ) ;
#92 = PERSON_AND_ORGANIZATION ( #5, #173 ) ;
#93 = VERTEX_POINT ( 'NONE', #222 ) ;
#94 = CARTESIAN_POINT ( 'NONE',  ( 0.000000000000000000, 0.000000000000000000, 200.0000000000000000 ) ) ;
#95 = APPROVAL_STATUS ( 'not_yet_approved' ) ;
#96 = DIRECTION ( 'NONE',  ( -1.000000000000000000, 0.000000000000000000, 0.000000000000000000 ) ) ;
#97 = CARTESIAN_POINT ( 'NONE',  ( -6.000000000000000888, 0.000000000000000000, 5.000000000000000000 ) ) ;
#98 = DATE_TIME_ROLE ( 'creation_date' ) ;
#99 = CARTESIAN_POINT ( 'NONE',  ( -6.000000000000000888, 0.000000000000000000, 5.000000000000000000 ) ) ;
#100 = DIRECTION ( 'NONE',  ( -0.000000000000000000, -0.000000000000000000, -1.000000000000000000 ) ) ;
#101 = CYLINDRICAL_SURFACE ( 'NONE', #115, 3.100000000000000089 ) ;
#102 = CIRCLE ( 'NONE', #40, 6.000000000000000888 ) ;
#103 = VERTEX_POINT ( 'NONE', #39 ) ;
#104 = CC_DESIGN_PERSON_AND_ORGANIZATION_ASSIGNMENT ( #10, #162, ( #24 ) ) ;
#105 = AXIS2_PLACEMENT_3D ( 'NONE', #192, #171, #96 ) ;
#106 = CYLINDRICAL_SURFACE ( 'NONE', #51, 6.000000000000000888 ) ;
#107 = CARTESIAN_POINT ( 'NONE',  ( 0.000000000000000000, 0.000000000000000000, 5.000000000000000000 ) ) ;
#108 = CARTESIAN_POINT ( 'NONE',  ( 0.000000000000000000, 0.000000000000000000, 5.000000000000000000 ) ) ;
#109 = CARTESIAN_POINT ( 'NONE',  ( 0.000000000000000000, 0.000000000000000000, 0.000000000000000000 ) ) ;
#110 = ADVANCED_FACE ( 'NONE', ( #21 ), #106, .T. ) ;
#111 = COORDINATED_UNIVERSAL_TIME_OFFSET ( 1, 0, .AHEAD. ) ;
#112 = EDGE_LOOP ( 'NONE', ( #234, #8 ) ) ;
#113 = PRODUCT_DEFINITION_FORMATION_WITH_SPECIFIED_SOURCE ( 'LIBOVOLNÝ', '', #188, .NOT_KNOWN. ) ;
#114 = ADVANCED_FACE ( 'NONE', ( #153 ), #241, .T. ) ;
#115 = AXIS2_PLACEMENT_3D ( 'NONE', #94, #165, #12 ) ;
#116 = CARTESIAN_POINT ( 'NONE',  ( 0.000000000000000000, 0.000000000000000000, 5.000000000000000000 ) ) ;
#117 = PLANE ( 'NONE',  #164 ) ;
#118 = ORIENTED_EDGE ( 'NONE', *, *, #179, .F. ) ;
#119 = ADVANCED_FACE ( 'NONE', ( #195 ), #200, .T. ) ;
#120 = CIRCLE ( 'NONE', #216, 6.000000000000000888 ) ;
#121 = EDGE_CURVE ( 'NONE', #186, #60, #226, .T. ) ;
#122 = ORIENTED_EDGE ( 'NONE', *, *, #76, .T. ) ;
#123 = DIRECTION ( 'NONE',  ( 1.000000000000000000, 0.000000000000000000, 0.000000000000000000 ) ) ;
#124 = EDGE_LOOP ( 'NONE', ( #239, #242 ) ) ;
#125 = DIRECTION ( 'NONE',  ( 0.000000000000000000, 0.000000000000000000, 1.000000000000000000 ) ) ;
#126 = PRODUCT_DEFINITION ( 'NEZNÁMÝ', '', #113, #50 ) ;
#127 = PERSON_AND_ORGANIZATION_ROLE ( 'design_supplier' ) ;
#128 = CARTESIAN_POINT ( 'NONE',  ( 6.000000000000000888, 7.347880794884120722E-16, 5.000000000000000000 ) ) ;
#129 = FACE_OUTER_BOUND ( 'NONE', #112, .T. ) ;
#130 = ORIENTED_EDGE ( 'NONE', *, *, #121, .F. ) ;
#131 = DIRECTION ( 'NONE',  ( 0.000000000000000000, 0.000000000000000000, 1.000000000000000000 ) ) ;
#132 = ORIENTED_EDGE ( 'NONE', *, *, #252, .F. ) ;
#133 = EDGE_CURVE ( 'NONE', #75, #103, #244, .T. ) ;
#134 = VECTOR ( 'NONE', #71, 1000.000000000000000 ) ;
#135 = ORIENTED_EDGE ( 'NONE', *, *, #161, .T. ) ;
#136 = APPROVAL_ROLE ( '' ) ;
#137 = APPROVAL ( #247, 'NEURÈENÝ' ) ;
#138 = CC_DESIGN_PERSON_AND_ORGANIZATION_ASSIGNMENT ( #53, #127, ( #113 ) ) ;
#139 =( GEOMETRIC_REPRESENTATION_CONTEXT ( 3 ) GLOBAL_UNCERTAINTY_ASSIGNED_CONTEXT ( ( #207 ) ) GLOBAL_UNIT_ASSIGNED_CONTEXT ( ( #227, #84, #1 ) ) REPRESENTATION_CONTEXT ( 'NONE', 'WORKASPACE' ) );
#140 = LINE ( 'NONE', #97, #214 ) ;
#141 = APPLICATION_PROTOCOL_DEFINITION ( 'international standard', 'config_control_design', 1994, #254 ) ;
#142 = CARTESIAN_POINT ( 'NONE',  ( 0.000000000000000000, 0.000000000000000000, 5.000000000000000000 ) ) ;
#143 = CALENDAR_DATE ( 2023, 12, 2 ) ;
#144 = EDGE_LOOP ( 'NONE', ( #68, #22 ) ) ;
#145 = CALENDAR_DATE ( 2023, 12, 2 ) ;
#146 = CARTESIAN_POINT ( 'NONE',  ( -6.000000000000000888, 0.000000000000000000, 0.000000000000000000 ) ) ;
#147 = CARTESIAN_POINT ( 'NONE',  ( 3.100000000000000089, 3.796405077356794918E-16, 200.0000000000000000 ) ) ;
#148 = DATE_AND_TIME ( #145, #194 ) ;
#149 = CIRCLE ( 'NONE', #61, 6.000000000000000888 ) ;
#150 = ORIENTED_EDGE ( 'NONE', *, *, #43, .T. ) ;
#151 = DIRECTION ( 'NONE',  ( -1.000000000000000000, 0.000000000000000000, 0.000000000000000000 ) ) ;
#152 = CLOSED_SHELL ( 'NONE', ( #37, #114, #110, #159, #3, #36, #119 ) ) ;
#153 = FACE_OUTER_BOUND ( 'NONE', #213, .T. ) ;
#154 = DIRECTION ( 'NONE',  ( 0.000000000000000000, 0.000000000000000000, 1.000000000000000000 ) ) ;
#155 = CC_DESIGN_APPROVAL ( #137, ( #24 ) ) ;
#156 = AXIS2_PLACEMENT_3D ( 'NONE', #107, #177, #44 ) ;
#157 = DIRECTION ( 'NONE',  ( -0.000000000000000000, -0.000000000000000000, -1.000000000000000000 ) ) ;
#158 = ORIENTED_EDGE ( 'NONE', *, *, #76, .F. ) ;
#159 = ADVANCED_FACE ( 'NONE', ( #228, #129 ), #232, .T. ) ;
#160 = APPROVAL_DATE_TIME ( #233, #191 ) ;
#161 = EDGE_CURVE ( 'NONE', #60, #103, #182, .T. ) ;
#162 = PERSON_AND_ORGANIZATION_ROLE ( 'classification_officer' ) ;
#163 = VERTEX_POINT ( 'NONE', #91 ) ;
#164 = AXIS2_PLACEMENT_3D ( 'NONE', #189, #205, #237 ) ;
#165 = DIRECTION ( 'NONE',  ( -0.000000000000000000, -0.000000000000000000, -1.000000000000000000 ) ) ;
#166 = APPROVAL_ROLE ( '' ) ;
#167 = DIRECTION ( 'NONE',  ( -0.000000000000000000, -0.000000000000000000, -1.000000000000000000 ) ) ;
#168 = APPROVAL_STATUS ( 'not_yet_approved' ) ;
#169 = APPROVAL_PERSON_ORGANIZATION ( #246, #191, #166 ) ;
#170 = DIRECTION ( 'NONE',  ( 0.000000000000000000, 0.000000000000000000, 1.000000000000000000 ) ) ;
#171 = DIRECTION ( 'NONE',  ( -0.000000000000000000, -0.000000000000000000, -1.000000000000000000 ) ) ;
#172 = EDGE_CURVE ( 'NONE', #163, #93, #54, .T. ) ;
#173 = ORGANIZATION ( 'NEURÈENÝ', 'NEURÈENÝ', '' ) ;
#174 = LOCAL_TIME ( 12, 32, 58.00000000000000000, #73 ) ;
#175 = ORIENTED_EDGE ( 'NONE', *, *, #86, .T. ) ;
#176 = MANIFOLD_SOLID_BREP ( 'Pøidat vysunutím3', #152 ) ;
#177 = DIRECTION ( 'NONE',  ( 0.000000000000000000, 0.000000000000000000, 1.000000000000000000 ) ) ;
#178 = AXIS2_PLACEMENT_3D ( 'NONE', #181, #125, #204 ) ;
#179 = EDGE_CURVE ( 'NONE', #11, #42, #140, .T. ) ;
#180 = DIRECTION ( 'NONE',  ( 1.000000000000000000, 0.000000000000000000, 0.000000000000000000 ) ) ;
#181 = CARTESIAN_POINT ( 'NONE',  ( 0.000000000000000000, 0.000000000000000000, 200.0000000000000000 ) ) ;
#182 = LINE ( 'NONE', #190, #134 ) ;
#183 = ORIENTED_EDGE ( 'NONE', *, *, #172, .T. ) ;
#184 = DIRECTION ( 'NONE',  ( 1.000000000000000000, 0.000000000000000000, -0.000000000000000000 ) ) ;
#185 = PERSON_AND_ORGANIZATION_ROLE ( 'creator' ) ;
#186 = VERTEX_POINT ( 'NONE', #147 ) ;
#187 = LOCAL_TIME ( 12, 32, 58.00000000000000000, #111 ) ;
#188 = PRODUCT ( '3be7', '3be7', '', ( #46 ) ) ;
#189 = CARTESIAN_POINT ( 'NONE',  ( 0.000000000000000000, 0.000000000000000000, 0.000000000000000000 ) ) ;
#190 = CARTESIAN_POINT ( 'NONE',  ( -3.100000000000000089, 0.000000000000000000, 200.0000000000000000 ) ) ;
#191 = APPROVAL ( #168, 'NEURÈENÝ' ) ;
#192 = CARTESIAN_POINT ( 'NONE',  ( 0.000000000000000000, 0.000000000000000000, 200.0000000000000000 ) ) ;
#193 = DIRECTION ( 'NONE',  ( 0.000000000000000000, 0.000000000000000000, 1.000000000000000000 ) ) ;
#194 = LOCAL_TIME ( 12, 32, 58.00000000000000000, #18 ) ;
#195 = FACE_OUTER_BOUND ( 'NONE', #81, .T. ) ;
#196 = AXIS2_PLACEMENT_3D ( 'NONE', #142, #193, #184 ) ;
#197 = CARTESIAN_POINT ( 'NONE',  ( 0.000000000000000000, 0.000000000000000000, 5.000000000000000000 ) ) ;
#198 = CIRCLE ( 'NONE', #62, 6.000000000000000888 ) ;
#199 = ORIENTED_EDGE ( 'NONE', *, *, #64, .F. ) ;
#200 = PLANE ( 'NONE',  #2 ) ;
#201 = APPROVAL_PERSON_ORGANIZATION ( #59, #208, #206 ) ;
#202 = CARTESIAN_POINT ( 'NONE',  ( 0.000000000000000000, 0.000000000000000000, 200.0000000000000000 ) ) ;
#203 = EDGE_CURVE ( 'NONE', #42, #93, #149, .T. ) ;
#204 = DIRECTION ( 'NONE',  ( 1.000000000000000000, 0.000000000000000000, 0.000000000000000000 ) ) ;
#205 = DIRECTION ( 'NONE',  ( 0.000000000000000000, 0.000000000000000000, 1.000000000000000000 ) ) ;
#206 = APPROVAL_ROLE ( '' ) ;
#207 = UNCERTAINTY_MEASURE_WITH_UNIT (LENGTH_MEASURE( 1.000000000000000082E-05 ), #227, 'distance_accuracy_value', 'NONE');
#208 = APPROVAL ( #95, 'NEURÈENÝ' ) ;
#209 = APPLICATION_CONTEXT ( 'configuration controlled 3d designs of mechanical parts and assemblies' ) ;
#210 = SECURITY_CLASSIFICATION_LEVEL ( 'unclassified' ) ;
#211 = DIRECTION ( 'NONE',  ( -0.000000000000000000, -0.000000000000000000, -1.000000000000000000 ) ) ;
#212 = DATE_TIME_ROLE ( 'classification_date' ) ;
#213 = EDGE_LOOP ( 'NONE', ( #132, #183, #150, #118 ) ) ;
#214 = VECTOR ( 'NONE', #167, 1000.000000000000000 ) ;
#215 = COORDINATED_UNIVERSAL_TIME_OFFSET ( 1, 0, .AHEAD. ) ;
#216 = AXIS2_PLACEMENT_3D ( 'NONE', #48, #131, #15 ) ;
#217 = PRODUCT_RELATED_PRODUCT_CATEGORY ( 'detail', '', ( #188 ) ) ;
#218 = CARTESIAN_POINT ( 'NONE',  ( 3.100000000000000089, 3.796405077356794918E-16, 200.0000000000000000 ) ) ;
#219 = AXIS2_PLACEMENT_3D ( 'NONE', #109, #4, #67 ) ;
#220 = APPROVAL_DATE_TIME ( #148, #137 ) ;
#221 = EDGE_CURVE ( 'NONE', #103, #75, #249, .T. ) ;
#222 = CARTESIAN_POINT ( 'NONE',  ( 6.000000000000000888, 7.347880794884120722E-16, 0.000000000000000000 ) ) ;
#223 = ORIENTED_EDGE ( 'NONE', *, *, #133, .T. ) ;
#224 = CC_DESIGN_DATE_AND_TIME_ASSIGNMENT ( #231, #212, ( #24 ) ) ;
#225 = DIRECTION ( 'NONE',  ( 1.000000000000000000, 0.000000000000000000, 0.000000000000000000 ) ) ;
#226 = CIRCLE ( 'NONE', #178, 3.100000000000000089 ) ;
#227 =( LENGTH_UNIT ( ) NAMED_UNIT ( * ) SI_UNIT ( .MILLI., .METRE. ) );
#228 = FACE_BOUND ( 'NONE', #124, .T. ) ;
#229 = DATE_AND_TIME ( #30, #9 ) ;
#230 = AXIS2_PLACEMENT_3D ( 'NONE', #197, #65, #20 ) ;
#231 = DATE_AND_TIME ( #143, #174 ) ;
#232 = PLANE ( 'NONE',  #196 ) ;
#233 = DATE_AND_TIME ( #90, #63 ) ;
#234 = ORIENTED_EDGE ( 'NONE', *, *, #64, .T. ) ;
#235 = CARTESIAN_POINT ( 'NONE',  ( 0.000000000000000000, 0.000000000000000000, 0.000000000000000000 ) ) ;
#236 = CIRCLE ( 'NONE', #6, 3.100000000000000089 ) ;
#237 = DIRECTION ( 'NONE',  ( 1.000000000000000000, 0.000000000000000000, -0.000000000000000000 ) ) ;
#238 = EDGE_LOOP ( 'NONE', ( #130, #122, #223, #57 ) ) ;
#239 = ORIENTED_EDGE ( 'NONE', *, *, #221, .F. ) ;
#240 = CC_DESIGN_PERSON_AND_ORGANIZATION_ASSIGNMENT ( #16, #80, ( #188 ) ) ;
#241 = CYLINDRICAL_SURFACE ( 'NONE', #230, 6.000000000000000888 ) ;
#242 = ORIENTED_EDGE ( 'NONE', *, *, #133, .F. ) ;
#243 = ADVANCED_BREP_SHAPE_REPRESENTATION ( '3be7', ( #176, #219 ), #139 ) ;
#244 = CIRCLE ( 'NONE', #87, 3.100000000000000089 ) ;
#245 = PERSON_AND_ORGANIZATION_ROLE ( 'creator' ) ;
#246 = PERSON_AND_ORGANIZATION ( #5, #173 ) ;
#247 = APPROVAL_STATUS ( 'not_yet_approved' ) ;
#248 = ORIENTED_EDGE ( 'NONE', *, *, #172, .F. ) ;
#249 = CIRCLE ( 'NONE', #156, 3.100000000000000089 ) ;
#250 = DIRECTION ( 'NONE',  ( 1.000000000000000000, 0.000000000000000000, 0.000000000000000000 ) ) ;
#251 = LINE ( 'NONE', #218, #89 ) ;
#252 = EDGE_CURVE ( 'NONE', #163, #11, #102, .T. ) ;
#253 = CARTESIAN_POINT ( 'NONE',  ( -3.100000000000000089, 0.000000000000000000, 200.0000000000000000 ) ) ;
#254 = APPLICATION_CONTEXT ( 'configuration controlled 3d designs of mechanical parts and assemblies' ) ;
#255 = CC_DESIGN_SECURITY_CLASSIFICATION ( #24, ( #113 ) ) ;
ENDSEC;
END-ISO-10303-21;
