ISO-10303-21;
HEADER;
FILE_DESCRIPTION (( 'STEP AP203' ),
    '1' );
FILE_NAME ('7812.STEP',
    '2022-07-07T12:20:27',
    ( '' ),
    ( '' ),
    'SwSTEP 2.0',
    'SolidWorks 2019',
    '' );
FILE_SCHEMA (( 'CONFIG_CONTROL_DESIGN' ));
ENDSEC;

DATA;
#1 = DIRECTION ( 'NONE',  ( 0.000000000000000000, 0.000000000000000000, 1.000000000000000000 ) ) ;
#2 = FACE_OUTER_BOUND ( 'NONE', #305, .T. ) ;
#3 = CARTESIAN_POINT ( 'NONE',  ( -11.00000000000000000, 0.000000000000000000, 7.000000000000000000 ) ) ;
#4 = VECTOR ( 'NONE', #136, 1000.000000000000000 ) ;
#5 = CARTESIAN_POINT ( 'NONE',  ( 11.00000000000000000, 1.347111479062088405E-15, 7.000000000000000000 ) ) ;
#6 = DIRECTION ( 'NONE',  ( 1.000000000000000000, 0.000000000000000000, 0.000000000000000000 ) ) ;
#7 = DATE_AND_TIME ( #30, #193 ) ;
#8 = COORDINATED_UNIVERSAL_TIME_OFFSET ( 1, 0, .AHEAD. ) ;
#9 = AXIS2_PLACEMENT_3D ( 'NONE', #48, #16, #71 ) ;
#10 = PERSON_AND_ORGANIZATION_ROLE ( 'classification_officer' ) ;
#11 = CALENDAR_DATE ( 2022, 7, 7 ) ;
#12 = AXIS2_PLACEMENT_3D ( 'NONE', #251, #82, #264 ) ;
#13 = DIRECTION ( 'NONE',  ( 0.000000000000000000, -1.000000000000000000, 0.000000000000000000 ) ) ;
#14 = CIRCLE ( 'NONE', #93, 0.1999999999999996503 ) ;
#15 = ORIENTED_EDGE ( 'NONE', *, *, #244, .T. ) ;
#16 = DIRECTION ( 'NONE',  ( -0.000000000000000000, -0.000000000000000000, -1.000000000000000000 ) ) ;
#17 = CARTESIAN_POINT ( 'NONE',  ( 0.000000000000000000, 0.000000000000000000, 0.000000000000000000 ) ) ;
#18 = VERTEX_POINT ( 'NONE', #3 ) ;
#19 = APPROVAL_PERSON_ORGANIZATION ( #290, #53, #74 ) ;
#20 = CC_DESIGN_APPROVAL ( #53, ( #121 ) ) ;
#21 = DIRECTION ( 'NONE',  ( 1.000000000000000000, 0.000000000000000000, 0.000000000000000000 ) ) ;
#22 = LINE ( 'NONE', #36, #197 ) ;
#23 = DIRECTION ( 'NONE',  ( 0.000000000000000000, 0.000000000000000000, 1.000000000000000000 ) ) ;
#24 = DIRECTION ( 'NONE',  ( 0.000000000000000000, 0.000000000000000000, 1.000000000000000000 ) ) ;
#25 = DIRECTION ( 'NONE',  ( -0.000000000000000000, -0.000000000000000000, -1.000000000000000000 ) ) ;
#26 = DIRECTION ( 'NONE',  ( 1.000000000000000000, 0.000000000000000000, 0.000000000000000000 ) ) ;
#27 = EDGE_CURVE ( 'NONE', #152, #234, #126, .T. ) ;
#28 = SHAPE_DEFINITION_REPRESENTATION ( #298, #164 ) ;
#29 = AXIS2_PLACEMENT_3D ( 'NONE', #86, #103, #44 ) ;
#30 = CALENDAR_DATE ( 2022, 7, 7 ) ;
#31 = COORDINATED_UNIVERSAL_TIME_OFFSET ( 1, 0, .AHEAD. ) ;
#32 = EDGE_LOOP ( 'NONE', ( #272, #131 ) ) ;
#33 = VERTEX_POINT ( 'NONE', #232 ) ;
#34 = DIRECTION ( 'NONE',  ( -0.000000000000000000, -0.000000000000000000, -1.000000000000000000 ) ) ;
#35 = EDGE_CURVE ( 'NONE', #152, #132, #269, .T. ) ;
#36 = CARTESIAN_POINT ( 'NONE',  ( -11.00000000000000000, 0.000000000000000000, 7.000000000000000000 ) ) ;
#37 = AXIS2_PLACEMENT_3D ( 'NONE', #130, #253, #216 ) ;
#38 = CARTESIAN_POINT ( 'NONE',  ( 0.000000000000000000, 0.000000000000000000, 7.199999999999984190 ) ) ;
#39 = CARTESIAN_POINT ( 'NONE',  ( 0.000000000000000000, 0.000000000000000000, 407.0000000000000000 ) ) ;
#40 = ORIENTED_EDGE ( 'NONE', *, *, #200, .T. ) ;
#41 = CC_DESIGN_PERSON_AND_ORGANIZATION_ASSIGNMENT ( #143, #171, ( #227 ) ) ;
#42 = CYLINDRICAL_SURFACE ( 'NONE', #246, 11.00000000000000000 ) ;
#43 = AXIS2_PLACEMENT_3D ( 'NONE', #241, #24, #61 ) ;
#44 = DIRECTION ( 'NONE',  ( 1.000000000000000000, 0.000000000000000000, 0.000000000000000000 ) ) ;
#45 = DIRECTION ( 'NONE',  ( 0.000000000000000000, 0.000000000000000000, 1.000000000000000000 ) ) ;
#46 = FACE_OUTER_BOUND ( 'NONE', #70, .T. ) ;
#47 = ADVANCED_FACE ( 'NONE', ( #237 ), #156, .F. ) ;
#48 = CARTESIAN_POINT ( 'NONE',  ( 0.000000000000000000, 0.000000000000000000, 7.000000000000000000 ) ) ;
#49 = CIRCLE ( 'NONE', #37, 11.00000000000000000 ) ;
#50 = APPLICATION_PROTOCOL_DEFINITION ( 'international standard', 'config_control_design', 1994, #192 ) ;
#51 = CC_DESIGN_SECURITY_CLASSIFICATION ( #121, ( #225 ) ) ;
#52 = PERSON_AND_ORGANIZATION ( #250, #254 ) ;
#53 = APPROVAL ( #75, 'NEURÈENÝ' ) ;
#54 = APPROVAL_DATE_TIME ( #267, #53 ) ;
#55 = DATE_AND_TIME ( #295, #219 ) ;
#56 = AXIS2_PLACEMENT_3D ( 'NONE', #276, #45, #124 ) ;
#57 = ADVANCED_FACE ( 'NONE', ( #158 ), #111, .F. ) ;
#58 = AXIS2_PLACEMENT_3D ( 'NONE', #114, #181, #26 ) ;
#59 = APPROVAL ( #92, 'NEURÈENÝ' ) ;
#60 = ORIENTED_EDGE ( 'NONE', *, *, #144, .F. ) ;
#61 = DIRECTION ( 'NONE',  ( 1.000000000000000000, 0.000000000000000000, 0.000000000000000000 ) ) ;
#62 = CARTESIAN_POINT ( 'NONE',  ( -8.000000000000000000, 0.000000000000000000, 407.0000000000000000 ) ) ;
#63 = FACE_OUTER_BOUND ( 'NONE', #261, .T. ) ;
#64 = CARTESIAN_POINT ( 'NONE',  ( -8.200000000000001066, 1.004210375300829674E-15, 6.999999999999992006 ) ) ;
#65 = ORIENTED_EDGE ( 'NONE', *, *, #238, .T. ) ;
#66 = ORIENTED_EDGE ( 'NONE', *, *, #291, .F. ) ;
#67 = AXIS2_PLACEMENT_3D ( 'NONE', #205, #167, #213 ) ;
#68 = DIRECTION ( 'NONE',  ( 0.000000000000000000, 0.000000000000000000, 1.000000000000000000 ) ) ;
#69 = EDGE_CURVE ( 'NONE', #248, #18, #162, .T. ) ;
#70 = EDGE_LOOP ( 'NONE', ( #186, #202, #203, #252 ) ) ;
#71 = DIRECTION ( 'NONE',  ( 1.000000000000000000, 0.000000000000000000, 0.000000000000000000 ) ) ;
#72 = CIRCLE ( 'NONE', #58, 8.000000000000000000 ) ;
#73 = APPROVAL_DATE_TIME ( #288, #59 ) ;
#74 = APPROVAL_ROLE ( '' ) ;
#75 = APPROVAL_STATUS ( 'not_yet_approved' ) ;
#76 = ADVANCED_FACE ( 'NONE', ( #161 ), #42, .T. ) ;
#77 = ORIENTED_EDGE ( 'NONE', *, *, #223, .F. ) ;
#78 = EDGE_LOOP ( 'NONE', ( #189, #210, #15, #66 ) ) ;
#79 = EDGE_CURVE ( 'NONE', #123, #234, #236, .T. ) ;
#80 = AXIS2_PLACEMENT_3D ( 'NONE', #38, #23, #21 ) ;
#81 = ORIENTED_EDGE ( 'NONE', *, *, #35, .F. ) ;
#82 = DIRECTION ( 'NONE',  ( 0.000000000000000000, 0.000000000000000000, 1.000000000000000000 ) ) ;
#83 = CARTESIAN_POINT ( 'NONE',  ( 0.000000000000000000, 0.000000000000000000, 7.000000000000000000 ) ) ;
#84 = APPROVAL_PERSON_ORGANIZATION ( #221, #59, #191 ) ;
#85 = CARTESIAN_POINT ( 'NONE',  ( 11.00000000000000000, 1.347111479062088405E-15, 0.000000000000000000 ) ) ;
#86 = CARTESIAN_POINT ( 'NONE',  ( 0.000000000000000000, 0.000000000000000000, 7.199999999999984190 ) ) ;
#87 = CARTESIAN_POINT ( 'NONE',  ( 8.000000000000000000, 9.797174393178825657E-16, 407.0000000000000000 ) ) ;
#88 = DIRECTION ( 'NONE',  ( 0.000000000000000000, 0.000000000000000000, 1.000000000000000000 ) ) ;
#89 = DIRECTION ( 'NONE',  ( -0.000000000000000000, -0.000000000000000000, -1.000000000000000000 ) ) ;
#90 = AXIS2_PLACEMENT_3D ( 'NONE', #119, #195, #141 ) ;
#91 = CYLINDRICAL_SURFACE ( 'NONE', #209, 11.00000000000000000 ) ;
#92 = APPROVAL_STATUS ( 'not_yet_approved' ) ;
#93 = AXIS2_PLACEMENT_3D ( 'NONE', #275, #13, #139 ) ;
#94 = CALENDAR_DATE ( 2022, 7, 7 ) ;
#95 = PERSON_AND_ORGANIZATION_ROLE ( 'design_supplier' ) ;
#96 = PERSON_AND_ORGANIZATION ( #250, #254 ) ;
#97 =( GEOMETRIC_REPRESENTATION_CONTEXT ( 3 ) GLOBAL_UNCERTAINTY_ASSIGNED_CONTEXT ( ( #147 ) ) GLOBAL_UNIT_ASSIGNED_CONTEXT ( ( #286, #118, #217 ) ) REPRESENTATION_CONTEXT ( 'NONE', 'WORKASPACE' ) );
#98 = PRODUCT ( '7812', '7812', '', ( #268 ) ) ;
#99 = AXIS2_PLACEMENT_3D ( 'NONE', #17, #1, #279 ) ;
#100 = DIRECTION ( 'NONE',  ( 1.000000000000000000, 0.000000000000000000, -0.000000000000000000 ) ) ;
#101 = ORIENTED_EDGE ( 'NONE', *, *, #238, .F. ) ;
#102 = CARTESIAN_POINT ( 'NONE',  ( 8.200000000000001066, 0.000000000000000000, 6.999999999999992006 ) ) ;
#103 = DIRECTION ( 'NONE',  ( 0.000000000000000000, 0.000000000000000000, 1.000000000000000000 ) ) ;
#104 = PRODUCT_RELATED_PRODUCT_CATEGORY ( 'detail', '', ( #98 ) ) ;
#105 = DIRECTION ( 'NONE',  ( -1.000000000000000000, 0.000000000000000000, 0.000000000000000000 ) ) ;
#106 = VECTOR ( 'NONE', #207, 1000.000000000000000 ) ;
#107 = ORIENTED_EDGE ( 'NONE', *, *, #179, .T. ) ;
#108 = CYLINDRICAL_SURFACE ( 'NONE', #134, 8.000000000000000000 ) ;
#109 = APPROVAL ( #198, 'NEURÈENÝ' ) ;
#110 = CARTESIAN_POINT ( 'NONE',  ( 0.000000000000000000, 0.000000000000000000, 7.199999999999984190 ) ) ;
#111 = PLANE ( 'NONE',  #99 ) ;
#112 = DIRECTION ( 'NONE',  ( 1.000000000000000000, 0.000000000000000000, 0.000000000000000000 ) ) ;
#113 = DIRECTION ( 'NONE',  ( -1.000000000000000000, 0.000000000000000000, 0.000000000000000000 ) ) ;
#114 = CARTESIAN_POINT ( 'NONE',  ( 0.000000000000000000, 0.000000000000000000, 407.0000000000000000 ) ) ;
#115 = SECURITY_CLASSIFICATION_LEVEL ( 'unclassified' ) ;
#116 = VECTOR ( 'NONE', #263, 1000.000000000000000 ) ;
#117 = CC_DESIGN_DATE_AND_TIME_ASSIGNMENT ( #194, #196, ( #121 ) ) ;
#118 =( NAMED_UNIT ( * ) PLANE_ANGLE_UNIT ( ) SI_UNIT ( $, .RADIAN. ) );
#119 = CARTESIAN_POINT ( 'NONE',  ( 0.000000000000000000, 0.000000000000000000, 0.000000000000000000 ) ) ;
#120 = EDGE_LOOP ( 'NONE', ( #224, #40 ) ) ;
#121 = SECURITY_CLASSIFICATION ( '', '', #115 ) ;
#122 = ADVANCED_FACE ( 'NONE', ( #63 ), #108, .T. ) ;
#123 = VERTEX_POINT ( 'NONE', #208 ) ;
#124 = DIRECTION ( 'NONE',  ( 1.000000000000000000, 0.000000000000000000, 0.000000000000000000 ) ) ;
#125 = VERTEX_POINT ( 'NONE', #85 ) ;
#126 = CIRCLE ( 'NONE', #80, 8.000000000000000000 ) ;
#127 = FACE_BOUND ( 'NONE', #120, .T. ) ;
#128 = MANIFOLD_SOLID_BREP ( 'Zaoblit1', #299 ) ;
#129 = EDGE_LOOP ( 'NONE', ( #300, #258, #182, #294 ) ) ;
#130 = CARTESIAN_POINT ( 'NONE',  ( 0.000000000000000000, 0.000000000000000000, 7.000000000000000000 ) ) ;
#131 = ORIENTED_EDGE ( 'NONE', *, *, #69, .T. ) ;
#132 = VERTEX_POINT ( 'NONE', #64 ) ;
#133 = EDGE_CURVE ( 'NONE', #248, #125, #159, .T. ) ;
#134 = AXIS2_PLACEMENT_3D ( 'NONE', #212, #256, #105 ) ;
#135 = DIRECTION ( 'NONE',  ( -1.000000000000000000, 0.000000000000000000, 0.000000000000000000 ) ) ;
#136 = DIRECTION ( 'NONE',  ( -0.000000000000000000, -0.000000000000000000, -1.000000000000000000 ) ) ;
#137 = CARTESIAN_POINT ( 'NONE',  ( -8.000000000000000000, 0.000000000000000000, 407.0000000000000000 ) ) ;
#138 = CYLINDRICAL_SURFACE ( 'NONE', #204, 8.000000000000000000 ) ;
#139 = DIRECTION ( 'NONE',  ( 0.000000000000000000, 0.000000000000000000, -1.000000000000000000 ) ) ;
#140 = CIRCLE ( 'NONE', #293, 8.000000000000000000 ) ;
#141 = DIRECTION ( 'NONE',  ( 1.000000000000000000, 0.000000000000000000, 0.000000000000000000 ) ) ;
#142 = ADVANCED_FACE ( 'NONE', ( #46 ), #138, .T. ) ;
#143 = PERSON_AND_ORGANIZATION ( #250, #254 ) ;
#144 = EDGE_CURVE ( 'NONE', #33, #125, #174, .T. ) ;
#145 = CIRCLE ( 'NONE', #9, 8.200000000000001066 ) ;
#146 = PERSON_AND_ORGANIZATION ( #250, #254 ) ;
#147 = UNCERTAINTY_MEASURE_WITH_UNIT (LENGTH_MEASURE( 1.000000000000000082E-05 ), #286, 'distance_accuracy_value', 'NONE');
#148 = COORDINATED_UNIVERSAL_TIME_OFFSET ( 1, 0, .AHEAD. ) ;
#149 = ORIENTED_EDGE ( 'NONE', *, *, #302, .T. ) ;
#150 = LOCAL_TIME ( 14, 20, 27.00000000000000000, #8 ) ;
#151 = CC_DESIGN_PERSON_AND_ORGANIZATION_ASSIGNMENT ( #292, #266, ( #225 ) ) ;
#152 = VERTEX_POINT ( 'NONE', #165 ) ;
#153 = ORIENTED_EDGE ( 'NONE', *, *, #172, .F. ) ;
#154 = FACE_OUTER_BOUND ( 'NONE', #185, .T. ) ;
#155 = CC_DESIGN_PERSON_AND_ORGANIZATION_ASSIGNMENT ( #52, #95, ( #225 ) ) ;
#156 = TOROIDAL_SURFACE ( 'NONE', #29, 8.200000000000001066, 0.2000000000000000111 ) ;
#157 = FACE_OUTER_BOUND ( 'NONE', #129, .T. ) ;
#158 = FACE_OUTER_BOUND ( 'NONE', #206, .T. ) ;
#159 = LINE ( 'NONE', #257, #116 ) ;
#160 = EDGE_CURVE ( 'NONE', #234, #152, #183, .T. ) ;
#161 = FACE_OUTER_BOUND ( 'NONE', #78, .T. ) ;
#162 = CIRCLE ( 'NONE', #274, 11.00000000000000000 ) ;
#163 = DIRECTION ( 'NONE',  ( 1.224646799147353207E-16, 1.000000000000000000, -0.000000000000000000 ) ) ;
#164 = ADVANCED_BREP_SHAPE_REPRESENTATION ( '7812', ( #128, #90 ), #97 ) ;
#165 = CARTESIAN_POINT ( 'NONE',  ( -8.000000000000000000, 0.000000000000000000, 7.199999999999984190 ) ) ;
#166 = ORIENTED_EDGE ( 'NONE', *, *, #35, .T. ) ;
#167 = DIRECTION ( 'NONE',  ( 0.000000000000000000, 0.000000000000000000, 1.000000000000000000 ) ) ;
#168 = ADVANCED_FACE ( 'NONE', ( #127, #229 ), #180, .T. ) ;
#169 = LOCAL_TIME ( 14, 20, 27.00000000000000000, #148 ) ;
#170 = DATE_TIME_ROLE ( 'creation_date' ) ;
#171 = PERSON_AND_ORGANIZATION_ROLE ( 'creator' ) ;
#172 = EDGE_CURVE ( 'NONE', #201, #132, #235, .T. ) ;
#173 = APPLICATION_PROTOCOL_DEFINITION ( 'international standard', 'config_control_design', 1994, #296 ) ;
#174 = CIRCLE ( 'NONE', #12, 11.00000000000000000 ) ;
#175 = CC_DESIGN_PERSON_AND_ORGANIZATION_ASSIGNMENT ( #96, #222, ( #98 ) ) ;
#176 = CIRCLE ( 'NONE', #43, 11.00000000000000000 ) ;
#177 = TOROIDAL_SURFACE ( 'NONE', #56, 8.200000000000001066, 0.2000000000000000111 ) ;
#178 = ORIENTED_EDGE ( 'NONE', *, *, #79, .T. ) ;
#179 = EDGE_CURVE ( 'NONE', #123, #249, #72, .T. ) ;
#180 = PLANE ( 'NONE',  #67 ) ;
#181 = DIRECTION ( 'NONE',  ( 0.000000000000000000, 0.000000000000000000, 1.000000000000000000 ) ) ;
#182 = ORIENTED_EDGE ( 'NONE', *, *, #291, .T. ) ;
#183 = CIRCLE ( 'NONE', #259, 8.000000000000000000 ) ;
#184 = EDGE_LOOP ( 'NONE', ( #81, #273, #65, #285 ) ) ;
#185 = EDGE_LOOP ( 'NONE', ( #149, #107 ) ) ;
#186 = ORIENTED_EDGE ( 'NONE', *, *, #79, .F. ) ;
#187 = DIRECTION ( 'NONE',  ( -0.000000000000000000, -0.000000000000000000, -1.000000000000000000 ) ) ;
#188 = AXIS2_PLACEMENT_3D ( 'NONE', #39, #88, #100 ) ;
#189 = ORIENTED_EDGE ( 'NONE', *, *, #69, .F. ) ;
#190 = DIRECTION ( 'NONE',  ( 1.000000000000000000, 0.000000000000000000, 0.000000000000000000 ) ) ;
#191 = APPROVAL_ROLE ( '' ) ;
#192 = APPLICATION_CONTEXT ( 'configuration controlled 3d designs of mechanical parts and assemblies' ) ;
#193 = LOCAL_TIME ( 14, 20, 27.00000000000000000, #31 ) ;
#194 = DATE_AND_TIME ( #94, #306 ) ;
#195 = DIRECTION ( 'NONE',  ( 0.000000000000000000, 0.000000000000000000, 1.000000000000000000 ) ) ;
#196 = DATE_TIME_ROLE ( 'classification_date' ) ;
#197 = VECTOR ( 'NONE', #187, 1000.000000000000000 ) ;
#198 = APPROVAL_STATUS ( 'not_yet_approved' ) ;
#199 = DESIGN_CONTEXT ( 'detailed design', #192, 'design' ) ;
#200 = EDGE_CURVE ( 'NONE', #132, #201, #145, .T. ) ;
#201 = VERTEX_POINT ( 'NONE', #102 ) ;
#202 = ORIENTED_EDGE ( 'NONE', *, *, #302, .F. ) ;
#203 = ORIENTED_EDGE ( 'NONE', *, *, #223, .T. ) ;
#204 = AXIS2_PLACEMENT_3D ( 'NONE', #240, #25, #113 ) ;
#205 = CARTESIAN_POINT ( 'NONE',  ( 0.000000000000000000, 0.000000000000000000, 7.000000000000000000 ) ) ;
#206 = EDGE_LOOP ( 'NONE', ( #60, #307 ) ) ;
#207 = DIRECTION ( 'NONE',  ( -0.000000000000000000, -0.000000000000000000, -1.000000000000000000 ) ) ;
#208 = CARTESIAN_POINT ( 'NONE',  ( 8.000000000000000000, 9.797174393178825657E-16, 407.0000000000000000 ) ) ;
#209 = AXIS2_PLACEMENT_3D ( 'NONE', #303, #301, #228 ) ;
#210 = ORIENTED_EDGE ( 'NONE', *, *, #133, .T. ) ;
#211 = ADVANCED_FACE ( 'NONE', ( #2 ), #177, .F. ) ;
#212 = CARTESIAN_POINT ( 'NONE',  ( 0.000000000000000000, 0.000000000000000000, 407.0000000000000000 ) ) ;
#213 = DIRECTION ( 'NONE',  ( 1.000000000000000000, 0.000000000000000000, -0.000000000000000000 ) ) ;
#214 = DIRECTION ( 'NONE',  ( -1.000000000000000000, 1.224646799147353207E-16, 0.000000000000000000 ) ) ;
#215 = CC_DESIGN_PERSON_AND_ORGANIZATION_ASSIGNMENT ( #218, #10, ( #121 ) ) ;
#216 = DIRECTION ( 'NONE',  ( 1.000000000000000000, 0.000000000000000000, 0.000000000000000000 ) ) ;
#217 =( NAMED_UNIT ( * ) SI_UNIT ( $, .STERADIAN. ) SOLID_ANGLE_UNIT ( ) );
#218 = PERSON_AND_ORGANIZATION ( #250, #254 ) ;
#219 = LOCAL_TIME ( 14, 20, 27.00000000000000000, #243 ) ;
#220 = APPROVAL_DATE_TIME ( #55, #109 ) ;
#221 = PERSON_AND_ORGANIZATION ( #250, #254 ) ;
#222 = PERSON_AND_ORGANIZATION_ROLE ( 'design_owner' ) ;
#223 = EDGE_CURVE ( 'NONE', #249, #152, #262, .T. ) ;
#224 = ORIENTED_EDGE ( 'NONE', *, *, #172, .T. ) ;
#225 = PRODUCT_DEFINITION_FORMATION_WITH_SPECIFIED_SOURCE ( 'LIBOVOLNÝ', '', #98, .NOT_KNOWN. ) ;
#226 = ORIENTED_EDGE ( 'NONE', *, *, #27, .F. ) ;
#227 = PRODUCT_DEFINITION ( 'NEZNÁMÝ', '', #225, #199 ) ;
#228 = DIRECTION ( 'NONE',  ( -1.000000000000000000, 0.000000000000000000, 0.000000000000000000 ) ) ;
#229 = FACE_OUTER_BOUND ( 'NONE', #32, .T. ) ;
#230 = CARTESIAN_POINT ( 'NONE',  ( -8.200000000000001066, 1.004210375300829674E-15, 7.199999999999984190 ) ) ;
#231 = DIRECTION ( 'NONE',  ( 0.000000000000000000, 0.000000000000000000, 1.000000000000000000 ) ) ;
#232 = CARTESIAN_POINT ( 'NONE',  ( -11.00000000000000000, 0.000000000000000000, 0.000000000000000000 ) ) ;
#233 = ADVANCED_FACE ( 'NONE', ( #157 ), #91, .T. ) ;
#234 = VERTEX_POINT ( 'NONE', #255 ) ;
#235 = CIRCLE ( 'NONE', #283, 8.200000000000001066 ) ;
#236 = LINE ( 'NONE', #87, #4 ) ;
#237 = FACE_OUTER_BOUND ( 'NONE', #184, .T. ) ;
#238 = EDGE_CURVE ( 'NONE', #234, #201, #14, .T. ) ;
#239 = CARTESIAN_POINT ( 'NONE',  ( 0.000000000000000000, 0.000000000000000000, 7.000000000000000000 ) ) ;
#240 = CARTESIAN_POINT ( 'NONE',  ( 0.000000000000000000, 0.000000000000000000, 407.0000000000000000 ) ) ;
#241 = CARTESIAN_POINT ( 'NONE',  ( 0.000000000000000000, 0.000000000000000000, 0.000000000000000000 ) ) ;
#242 = AXIS2_PLACEMENT_3D ( 'NONE', #230, #163, #214 ) ;
#243 = COORDINATED_UNIVERSAL_TIME_OFFSET ( 1, 0, .AHEAD. ) ;
#244 = EDGE_CURVE ( 'NONE', #125, #33, #176, .T. ) ;
#245 = CALENDAR_DATE ( 2022, 7, 7 ) ;
#246 = AXIS2_PLACEMENT_3D ( 'NONE', #83, #89, #135 ) ;
#247 = APPROVAL_ROLE ( '' ) ;
#248 = VERTEX_POINT ( 'NONE', #5 ) ;
#249 = VERTEX_POINT ( 'NONE', #137 ) ;
#250 = PERSON ( 'NEURÈENÝ', 'NEURÈENÝ', 'NEURÈENÝ', ('NEURÈENÝ'), ('NEURÈENÝ'), ('NEURÈENÝ') ) ;
#251 = CARTESIAN_POINT ( 'NONE',  ( 0.000000000000000000, 0.000000000000000000, 0.000000000000000000 ) ) ;
#252 = ORIENTED_EDGE ( 'NONE', *, *, #27, .T. ) ;
#253 = DIRECTION ( 'NONE',  ( 0.000000000000000000, 0.000000000000000000, 1.000000000000000000 ) ) ;
#254 = ORGANIZATION ( 'NEURÈENÝ', 'NEURÈENÝ', '' ) ;
#255 = CARTESIAN_POINT ( 'NONE',  ( 8.000000000000000000, 9.797174393178825657E-16, 7.199999999999984190 ) ) ;
#256 = DIRECTION ( 'NONE',  ( -0.000000000000000000, -0.000000000000000000, -1.000000000000000000 ) ) ;
#257 = CARTESIAN_POINT ( 'NONE',  ( 11.00000000000000000, 1.347111479062088405E-15, 7.000000000000000000 ) ) ;
#258 = ORIENTED_EDGE ( 'NONE', *, *, #281, .F. ) ;
#259 = AXIS2_PLACEMENT_3D ( 'NONE', #110, #231, #190 ) ;
#260 = CC_DESIGN_DATE_AND_TIME_ASSIGNMENT ( #7, #170, ( #227 ) ) ;
#261 = EDGE_LOOP ( 'NONE', ( #297, #178, #277, #77 ) ) ;
#262 = LINE ( 'NONE', #62, #106 ) ;
#263 = DIRECTION ( 'NONE',  ( -0.000000000000000000, -0.000000000000000000, -1.000000000000000000 ) ) ;
#264 = DIRECTION ( 'NONE',  ( 1.000000000000000000, 0.000000000000000000, 0.000000000000000000 ) ) ;
#265 = CC_DESIGN_APPROVAL ( #59, ( #225 ) ) ;
#266 = PERSON_AND_ORGANIZATION_ROLE ( 'creator' ) ;
#267 = DATE_AND_TIME ( #245, #169 ) ;
#268 = MECHANICAL_CONTEXT ( 'NONE', #296, 'mechanical' ) ;
#269 = CIRCLE ( 'NONE', #242, 0.2000000000000005107 ) ;
#270 = ADVANCED_FACE ( 'NONE', ( #154 ), #287, .T. ) ;
#271 = COORDINATED_UNIVERSAL_TIME_OFFSET ( 1, 0, .AHEAD. ) ;
#272 = ORIENTED_EDGE ( 'NONE', *, *, #281, .T. ) ;
#273 = ORIENTED_EDGE ( 'NONE', *, *, #160, .F. ) ;
#274 = AXIS2_PLACEMENT_3D ( 'NONE', #280, #304, #282 ) ;
#275 = CARTESIAN_POINT ( 'NONE',  ( 8.200000000000001066, 0.000000000000000000, 7.199999999999984190 ) ) ;
#276 = CARTESIAN_POINT ( 'NONE',  ( 0.000000000000000000, 0.000000000000000000, 7.199999999999984190 ) ) ;
#277 = ORIENTED_EDGE ( 'NONE', *, *, #160, .T. ) ;
#278 = CC_DESIGN_APPROVAL ( #109, ( #227 ) ) ;
#279 = DIRECTION ( 'NONE',  ( 1.000000000000000000, 0.000000000000000000, -0.000000000000000000 ) ) ;
#280 = CARTESIAN_POINT ( 'NONE',  ( 0.000000000000000000, 0.000000000000000000, 7.000000000000000000 ) ) ;
#281 = EDGE_CURVE ( 'NONE', #18, #248, #49, .T. ) ;
#282 = DIRECTION ( 'NONE',  ( 1.000000000000000000, 0.000000000000000000, 0.000000000000000000 ) ) ;
#283 = AXIS2_PLACEMENT_3D ( 'NONE', #239, #34, #6 ) ;
#284 = CARTESIAN_POINT ( 'NONE',  ( 0.000000000000000000, 0.000000000000000000, 407.0000000000000000 ) ) ;
#285 = ORIENTED_EDGE ( 'NONE', *, *, #200, .F. ) ;
#286 =( LENGTH_UNIT ( ) NAMED_UNIT ( * ) SI_UNIT ( .MILLI., .METRE. ) );
#287 = PLANE ( 'NONE',  #188 ) ;
#288 = DATE_AND_TIME ( #11, #150 ) ;
#289 = APPROVAL_PERSON_ORGANIZATION ( #146, #109, #247 ) ;
#290 = PERSON_AND_ORGANIZATION ( #250, #254 ) ;
#291 = EDGE_CURVE ( 'NONE', #18, #33, #22, .T. ) ;
#292 = PERSON_AND_ORGANIZATION ( #250, #254 ) ;
#293 = AXIS2_PLACEMENT_3D ( 'NONE', #284, #68, #112 ) ;
#294 = ORIENTED_EDGE ( 'NONE', *, *, #144, .T. ) ;
#295 = CALENDAR_DATE ( 2022, 7, 7 ) ;
#296 = APPLICATION_CONTEXT ( 'configuration controlled 3d designs of mechanical parts and assemblies' ) ;
#297 = ORIENTED_EDGE ( 'NONE', *, *, #179, .F. ) ;
#298 = PRODUCT_DEFINITION_SHAPE ( 'NONE', 'NONE',  #227 ) ;
#299 = CLOSED_SHELL ( 'NONE', ( #211, #122, #76, #233, #168, #57, #142, #270, #47 ) ) ;
#300 = ORIENTED_EDGE ( 'NONE', *, *, #133, .F. ) ;
#301 = DIRECTION ( 'NONE',  ( -0.000000000000000000, -0.000000000000000000, -1.000000000000000000 ) ) ;
#302 = EDGE_CURVE ( 'NONE', #249, #123, #140, .T. ) ;
#303 = CARTESIAN_POINT ( 'NONE',  ( 0.000000000000000000, 0.000000000000000000, 7.000000000000000000 ) ) ;
#304 = DIRECTION ( 'NONE',  ( 0.000000000000000000, 0.000000000000000000, 1.000000000000000000 ) ) ;
#305 = EDGE_LOOP ( 'NONE', ( #226, #166, #153, #101 ) ) ;
#306 = LOCAL_TIME ( 14, 20, 27.00000000000000000, #271 ) ;
#307 = ORIENTED_EDGE ( 'NONE', *, *, #244, .F. ) ;
ENDSEC;
END-ISO-10303-21;
