ISO-10303-21;
HEADER;
FILE_DESCRIPTION (( 'STEP AP203' ),
    '1' );
FILE_NAME ('a7c8.STEP',
    '2022-07-07T12:36:15',
    ( '' ),
    ( '' ),
    'SwSTEP 2.0',
    'SolidWorks 2019',
    '' );
FILE_SCHEMA (( 'CONFIG_CONTROL_DESIGN' ));
ENDSEC;

DATA;
#1 = APPROVAL_ROLE ( '' ) ;
#2 = AXIS2_PLACEMENT_3D ( 'NONE', #159, #65, #214 ) ;
#3 = COORDINATED_UNIVERSAL_TIME_OFFSET ( 1, 0, .AHEAD. ) ;
#4 = ADVANCED_FACE ( 'NONE', ( #264 ), #81, .T. ) ;
#5 = PRODUCT ( 'a7c8', 'a7c8', '', ( #260 ) ) ;
#6 =( NAMED_UNIT ( * ) SI_UNIT ( $, .STERADIAN. ) SOLID_ANGLE_UNIT ( ) );
#7 = EDGE_LOOP ( 'NONE', ( #292, #226 ) ) ;
#8 = ADVANCED_FACE ( 'NONE', ( #229 ), #216, .F. ) ;
#9 = AXIS2_PLACEMENT_3D ( 'NONE', #278, #254, #111 ) ;
#10 = ADVANCED_FACE ( 'NONE', ( #83 ), #150, .T. ) ;
#11 = CIRCLE ( 'NONE', #269, 3.750000000000000000 ) ;
#12 = CIRCLE ( 'NONE', #26, 6.000000000000000888 ) ;
#13 = ORIENTED_EDGE ( 'NONE', *, *, #53, .T. ) ;
#14 = CC_DESIGN_DATE_AND_TIME_ASSIGNMENT ( #94, #47, ( #23 ) ) ;
#15 = DIRECTION ( 'NONE',  ( 0.000000000000000000, 0.000000000000000000, 1.000000000000000000 ) ) ;
#16 = ADVANCED_FACE ( 'NONE', ( #267 ), #298, .F. ) ;
#17 = CARTESIAN_POINT ( 'NONE',  ( 0.000000000000000000, 0.000000000000000000, 5.199999999999996625 ) ) ;
#18 = CIRCLE ( 'NONE', #140, 6.000000000000000888 ) ;
#19 = CARTESIAN_POINT ( 'NONE',  ( 0.000000000000000000, 0.000000000000000000, 5.199999999999996625 ) ) ;
#20 = DIRECTION ( 'NONE',  ( -0.000000000000000000, -0.000000000000000000, -1.000000000000000000 ) ) ;
#21 = CARTESIAN_POINT ( 'NONE',  ( 0.000000000000000000, 0.000000000000000000, 5.000000000000000000 ) ) ;
#22 = DIRECTION ( 'NONE',  ( -1.000000000000000000, 0.000000000000000000, 0.000000000000000000 ) ) ;
#23 = PRODUCT_DEFINITION ( 'NEZNÁMÝ', '', #103, #151 ) ;
#24 = CARTESIAN_POINT ( 'NONE',  ( 6.000000000000000888, 7.347880794884120722E-16, 5.000000000000000000 ) ) ;
#25 = COORDINATED_UNIVERSAL_TIME_OFFSET ( 1, 0, .AHEAD. ) ;
#26 = AXIS2_PLACEMENT_3D ( 'NONE', #293, #80, #34 ) ;
#27 =( NAMED_UNIT ( * ) PLANE_ANGLE_UNIT ( ) SI_UNIT ( $, .RADIAN. ) );
#28 = APPROVAL_DATE_TIME ( #192, #89 ) ;
#29 = ORIENTED_EDGE ( 'NONE', *, *, #145, .T. ) ;
#30 = EDGE_CURVE ( 'NONE', #43, #106, #291, .T. ) ;
#31 = VERTEX_POINT ( 'NONE', #179 ) ;
#32 = CC_DESIGN_PERSON_AND_ORGANIZATION_ASSIGNMENT ( #305, #72, ( #103 ) ) ;
#33 = EDGE_LOOP ( 'NONE', ( #142, #128, #240, #228 ) ) ;
#34 = DIRECTION ( 'NONE',  ( 1.000000000000000000, 0.000000000000000000, 0.000000000000000000 ) ) ;
#35 = EDGE_LOOP ( 'NONE', ( #191, #223, #13, #125 ) ) ;
#36 = DIRECTION ( 'NONE',  ( -0.000000000000000000, -0.000000000000000000, -1.000000000000000000 ) ) ;
#37 = APPLICATION_CONTEXT ( 'configuration controlled 3d designs of mechanical parts and assemblies' ) ;
#38 = CARTESIAN_POINT ( 'NONE',  ( 0.000000000000000000, 0.000000000000000000, 130.0000000000000000 ) ) ;
#39 = DIRECTION ( 'NONE',  ( 1.000000000000000000, 0.000000000000000000, 0.000000000000000000 ) ) ;
#40 = DIRECTION ( 'NONE',  ( 1.000000000000000000, 0.000000000000000000, 0.000000000000000000 ) ) ;
#41 = CARTESIAN_POINT ( 'NONE',  ( 3.750000000000000000, 4.592425496802573972E-16, 130.0000000000000000 ) ) ;
#42 = APPLICATION_PROTOCOL_DEFINITION ( 'international standard', 'config_control_design', 1994, #46 ) ;
#43 = VERTEX_POINT ( 'NONE', #244 ) ;
#44 = AXIS2_PLACEMENT_3D ( 'NONE', #54, #105, #296 ) ;
#45 = VECTOR ( 'NONE', #281, 1000.000000000000000 ) ;
#46 = APPLICATION_CONTEXT ( 'configuration controlled 3d designs of mechanical parts and assemblies' ) ;
#47 = DATE_TIME_ROLE ( 'creation_date' ) ;
#48 = PERSON ( 'NEURÈENÝ', 'NEURÈENÝ', 'NEURÈENÝ', ('NEURÈENÝ'), ('NEURÈENÝ'), ('NEURÈENÝ') ) ;
#49 = VERTEX_POINT ( 'NONE', #205 ) ;
#50 = AXIS2_PLACEMENT_3D ( 'NONE', #182, #207, #104 ) ;
#51 = CARTESIAN_POINT ( 'NONE',  ( 0.000000000000000000, 0.000000000000000000, 0.000000000000000000 ) ) ;
#52 = ORIENTED_EDGE ( 'NONE', *, *, #110, .T. ) ;
#53 = EDGE_CURVE ( 'NONE', #31, #106, #272, .T. ) ;
#54 = CARTESIAN_POINT ( 'NONE',  ( 0.000000000000000000, 0.000000000000000000, 130.0000000000000000 ) ) ;
#55 = ORIENTED_EDGE ( 'NONE', *, *, #137, .T. ) ;
#56 = DIRECTION ( 'NONE',  ( 0.000000000000000000, 0.000000000000000000, 1.000000000000000000 ) ) ;
#57 = LOCAL_TIME ( 14, 36, 15.00000000000000000, #25 ) ;
#58 = COORDINATED_UNIVERSAL_TIME_OFFSET ( 1, 0, .AHEAD. ) ;
#59 = CARTESIAN_POINT ( 'NONE',  ( -3.750000000000000000, 0.000000000000000000, 130.0000000000000000 ) ) ;
#60 = EDGE_LOOP ( 'NONE', ( #195, #167, #222, #197 ) ) ;
#61 = DIRECTION ( 'NONE',  ( 1.000000000000000000, 0.000000000000000000, 0.000000000000000000 ) ) ;
#62 = EDGE_CURVE ( 'NONE', #79, #149, #12, .T. ) ;
#63 = CARTESIAN_POINT ( 'NONE',  ( 0.000000000000000000, 0.000000000000000000, 0.000000000000000000 ) ) ;
#64 = CC_DESIGN_PERSON_AND_ORGANIZATION_ASSIGNMENT ( #74, #287, ( #230 ) ) ;
#65 = DIRECTION ( 'NONE',  ( 0.000000000000000000, 0.000000000000000000, 1.000000000000000000 ) ) ;
#66 = ADVANCED_FACE ( 'NONE', ( #130 ), #173, .T. ) ;
#67 = LINE ( 'NONE', #41, #177 ) ;
#68 = DIRECTION ( 'NONE',  ( 1.000000000000000000, 0.000000000000000000, 0.000000000000000000 ) ) ;
#69 = EDGE_LOOP ( 'NONE', ( #100, #261, #29, #129 ) ) ;
#70 = COORDINATED_UNIVERSAL_TIME_OFFSET ( 1, 0, .AHEAD. ) ;
#71 = EDGE_LOOP ( 'NONE', ( #265, #242, #127, #282 ) ) ;
#72 = PERSON_AND_ORGANIZATION_ROLE ( 'creator' ) ;
#73 = ADVANCED_FACE ( 'NONE', ( #156, #200 ), #232, .T. ) ;
#74 = PERSON_AND_ORGANIZATION ( #48, #163 ) ;
#75 = PERSON_AND_ORGANIZATION ( #48, #163 ) ;
#76 = ORIENTED_EDGE ( 'NONE', *, *, #86, .T. ) ;
#77 = AXIS2_PLACEMENT_3D ( 'NONE', #277, #236, #22 ) ;
#78 = APPROVAL_PERSON_ORGANIZATION ( #241, #89, #1 ) ;
#79 = VERTEX_POINT ( 'NONE', #24 ) ;
#80 = DIRECTION ( 'NONE',  ( 0.000000000000000000, 0.000000000000000000, 1.000000000000000000 ) ) ;
#81 = CYLINDRICAL_SURFACE ( 'NONE', #44, 3.750000000000000000 ) ;
#82 = AXIS2_PLACEMENT_3D ( 'NONE', #274, #251, #61 ) ;
#83 = FACE_OUTER_BOUND ( 'NONE', #7, .T. ) ;
#84 = CARTESIAN_POINT ( 'NONE',  ( 0.000000000000000000, 0.000000000000000000, 130.0000000000000000 ) ) ;
#85 = CARTESIAN_POINT ( 'NONE',  ( -3.750000000000000000, 0.000000000000000000, 5.199999999999996625 ) ) ;
#86 = EDGE_CURVE ( 'NONE', #149, #79, #193, .T. ) ;
#87 = DIRECTION ( 'NONE',  ( 1.000000000000000000, 0.000000000000000000, 0.000000000000000000 ) ) ;
#88 = CIRCLE ( 'NONE', #92, 6.000000000000000888 ) ;
#89 = APPROVAL ( #190, 'NEURÈENÝ' ) ;
#90 = FACE_OUTER_BOUND ( 'NONE', #256, .T. ) ;
#91 = CARTESIAN_POINT ( 'NONE',  ( 3.949999999999999734, 0.000000000000000000, 5.199999999999996625 ) ) ;
#92 = AXIS2_PLACEMENT_3D ( 'NONE', #114, #303, #237 ) ;
#93 = APPROVAL_STATUS ( 'not_yet_approved' ) ;
#94 = DATE_AND_TIME ( #239, #220 ) ;
#95 = PERSON_AND_ORGANIZATION ( #48, #163 ) ;
#96 =( GEOMETRIC_REPRESENTATION_CONTEXT ( 3 ) GLOBAL_UNCERTAINTY_ASSIGNED_CONTEXT ( ( #208 ) ) GLOBAL_UNIT_ASSIGNED_CONTEXT ( ( #218, #27, #6 ) ) REPRESENTATION_CONTEXT ( 'NONE', 'WORKASPACE' ) );
#97 = PERSON_AND_ORGANIZATION ( #48, #163 ) ;
#98 = ORIENTED_EDGE ( 'NONE', *, *, #227, .T. ) ;
#99 = EDGE_CURVE ( 'NONE', #245, #49, #268, .T. ) ;
#100 = ORIENTED_EDGE ( 'NONE', *, *, #210, .F. ) ;
#101 = CIRCLE ( 'NONE', #275, 0.1999999999999996503 ) ;
#102 = AXIS2_PLACEMENT_3D ( 'NONE', #84, #231, #108 ) ;
#103 = PRODUCT_DEFINITION_FORMATION_WITH_SPECIFIED_SOURCE ( 'LIBOVOLNÝ', '', #5, .NOT_KNOWN. ) ;
#104 = DIRECTION ( 'NONE',  ( 1.000000000000000000, 0.000000000000000000, -0.000000000000000000 ) ) ;
#105 = DIRECTION ( 'NONE',  ( -0.000000000000000000, -0.000000000000000000, -1.000000000000000000 ) ) ;
#106 = VERTEX_POINT ( 'NONE', #85 ) ;
#107 = AXIS2_PLACEMENT_3D ( 'NONE', #280, #304, #40 ) ;
#108 = DIRECTION ( 'NONE',  ( -1.000000000000000000, 0.000000000000000000, 0.000000000000000000 ) ) ;
#109 = EDGE_CURVE ( 'NONE', #31, #171, #176, .T. ) ;
#110 = EDGE_CURVE ( 'NONE', #49, #245, #116, .T. ) ;
#111 = DIRECTION ( 'NONE',  ( 1.000000000000000000, 0.000000000000000000, -0.000000000000000000 ) ) ;
#112 = CARTESIAN_POINT ( 'NONE',  ( -6.000000000000000888, 0.000000000000000000, 5.000000000000000000 ) ) ;
#113 = DIRECTION ( 'NONE',  ( -1.000000000000000000, 0.000000000000000000, 0.000000000000000000 ) ) ;
#114 = CARTESIAN_POINT ( 'NONE',  ( 0.000000000000000000, 0.000000000000000000, 0.000000000000000000 ) ) ;
#115 = DIRECTION ( 'NONE',  ( 0.000000000000000000, 0.000000000000000000, 1.000000000000000000 ) ) ;
#116 = CIRCLE ( 'NONE', #82, 3.949999999999999734 ) ;
#117 = APPROVAL_PERSON_ORGANIZATION ( #75, #180, #189 ) ;
#118 = EDGE_CURVE ( 'NONE', #171, #31, #290, .T. ) ;
#119 = CALENDAR_DATE ( 2022, 7, 7 ) ;
#120 = APPROVAL_STATUS ( 'not_yet_approved' ) ;
#121 = DATE_TIME_ROLE ( 'classification_date' ) ;
#122 = ORIENTED_EDGE ( 'NONE', *, *, #307, .F. ) ;
#123 = PRODUCT_DEFINITION_SHAPE ( 'NONE', 'NONE',  #23 ) ;
#124 = ORIENTED_EDGE ( 'NONE', *, *, #62, .T. ) ;
#125 = ORIENTED_EDGE ( 'NONE', *, *, #266, .T. ) ;
#126 = AXIS2_PLACEMENT_3D ( 'NONE', #21, #161, #113 ) ;
#127 = ORIENTED_EDGE ( 'NONE', *, *, #110, .F. ) ;
#128 = ORIENTED_EDGE ( 'NONE', *, *, #307, .T. ) ;
#129 = ORIENTED_EDGE ( 'NONE', *, *, #99, .F. ) ;
#130 = FACE_OUTER_BOUND ( 'NONE', #35, .T. ) ;
#131 = CC_DESIGN_APPROVAL ( #180, ( #230 ) ) ;
#132 = DIRECTION ( 'NONE',  ( -1.000000000000000000, 1.224646799147353454E-16, 0.000000000000000000 ) ) ;
#133 = MANIFOLD_SOLID_BREP ( 'Zaoblit1', #297 ) ;
#134 = DIRECTION ( 'NONE',  ( 1.000000000000000000, 0.000000000000000000, 0.000000000000000000 ) ) ;
#135 = CARTESIAN_POINT ( 'NONE',  ( -3.949999999999999734, 4.837354856632044071E-16, 4.999999999999998224 ) ) ;
#136 = AXIS2_PLACEMENT_3D ( 'NONE', #215, #20, #184 ) ;
#137 = EDGE_CURVE ( 'NONE', #172, #144, #88, .T. ) ;
#138 = CARTESIAN_POINT ( 'NONE',  ( 3.750000000000000000, 4.592425496802573972E-16, 130.0000000000000000 ) ) ;
#139 = ADVANCED_FACE ( 'NONE', ( #276 ), #188, .F. ) ;
#140 = AXIS2_PLACEMENT_3D ( 'NONE', #63, #160, #39 ) ;
#141 = CC_DESIGN_PERSON_AND_ORGANIZATION_ASSIGNMENT ( #95, #143, ( #23 ) ) ;
#142 = ORIENTED_EDGE ( 'NONE', *, *, #62, .F. ) ;
#143 = PERSON_AND_ORGANIZATION_ROLE ( 'creator' ) ;
#144 = VERTEX_POINT ( 'NONE', #164 ) ;
#145 = EDGE_CURVE ( 'NONE', #43, #49, #101, .T. ) ;
#146 = AXIS2_PLACEMENT_3D ( 'NONE', #202, #56, #153 ) ;
#147 = LOCAL_TIME ( 14, 36, 15.00000000000000000, #3 ) ;
#148 = PERSON_AND_ORGANIZATION_ROLE ( 'design_owner' ) ;
#149 = VERTEX_POINT ( 'NONE', #249 ) ;
#150 = PLANE ( 'NONE',  #50 ) ;
#151 = DESIGN_CONTEXT ( 'detailed design', #37, 'design' ) ;
#152 = ORIENTED_EDGE ( 'NONE', *, *, #99, .T. ) ;
#153 = DIRECTION ( 'NONE',  ( 1.000000000000000000, 0.000000000000000000, -0.000000000000000000 ) ) ;
#154 = DATE_AND_TIME ( #198, #235 ) ;
#155 = DIRECTION ( 'NONE',  ( -0.000000000000000000, -0.000000000000000000, -1.000000000000000000 ) ) ;
#156 = FACE_BOUND ( 'NONE', #243, .T. ) ;
#157 = AXIS2_PLACEMENT_3D ( 'NONE', #38, #209, #134 ) ;
#158 = VECTOR ( 'NONE', #155, 1000.000000000000000 ) ;
#159 = CARTESIAN_POINT ( 'NONE',  ( 0.000000000000000000, 0.000000000000000000, 5.000000000000000000 ) ) ;
#160 = DIRECTION ( 'NONE',  ( 0.000000000000000000, 0.000000000000000000, 1.000000000000000000 ) ) ;
#161 = DIRECTION ( 'NONE',  ( -0.000000000000000000, -0.000000000000000000, -1.000000000000000000 ) ) ;
#162 = CARTESIAN_POINT ( 'NONE',  ( -3.949999999999999734, 4.837354856632044071E-16, 5.199999999999996625 ) ) ;
#163 = ORGANIZATION ( 'NEURÈENÝ', 'NEURÈENÝ', '' ) ;
#164 = CARTESIAN_POINT ( 'NONE',  ( 6.000000000000000888, 7.347880794884120722E-16, 0.000000000000000000 ) ) ;
#165 = DIRECTION ( 'NONE',  ( 1.000000000000000000, 0.000000000000000000, 0.000000000000000000 ) ) ;
#166 = CALENDAR_DATE ( 2022, 7, 7 ) ;
#167 = ORIENTED_EDGE ( 'NONE', *, *, #199, .T. ) ;
#168 = PERSON_AND_ORGANIZATION ( #48, #163 ) ;
#169 = DATE_AND_TIME ( #259, #248 ) ;
#170 = CARTESIAN_POINT ( 'NONE',  ( 6.000000000000000888, 7.347880794884120722E-16, 5.000000000000000000 ) ) ;
#171 = VERTEX_POINT ( 'NONE', #138 ) ;
#172 = VERTEX_POINT ( 'NONE', #255 ) ;
#173 = CYLINDRICAL_SURFACE ( 'NONE', #102, 3.750000000000000000 ) ;
#174 = SHAPE_DEFINITION_REPRESENTATION ( #123, #178 ) ;
#175 = DIRECTION ( 'NONE',  ( 0.000000000000000000, 0.000000000000000000, 1.000000000000000000 ) ) ;
#176 = CIRCLE ( 'NONE', #107, 3.750000000000000000 ) ;
#177 = VECTOR ( 'NONE', #36, 1000.000000000000000 ) ;
#178 = ADVANCED_BREP_SHAPE_REPRESENTATION ( 'a7c8', ( #133, #253 ), #96 ) ;
#179 = CARTESIAN_POINT ( 'NONE',  ( -3.750000000000000000, 0.000000000000000000, 130.0000000000000000 ) ) ;
#180 = APPROVAL ( #93, 'NEURÈENÝ' ) ;
#181 = ADVANCED_FACE ( 'NONE', ( #234 ), #183, .T. ) ;
#182 = CARTESIAN_POINT ( 'NONE',  ( 0.000000000000000000, 0.000000000000000000, 130.0000000000000000 ) ) ;
#183 = CYLINDRICAL_SURFACE ( 'NONE', #126, 6.000000000000000888 ) ;
#184 = DIRECTION ( 'NONE',  ( 1.000000000000000000, 0.000000000000000000, 0.000000000000000000 ) ) ;
#185 = CYLINDRICAL_SURFACE ( 'NONE', #77, 6.000000000000000888 ) ;
#186 = CARTESIAN_POINT ( 'NONE',  ( 0.000000000000000000, 0.000000000000000000, 5.199999999999996625 ) ) ;
#187 = DIRECTION ( 'NONE',  ( 0.000000000000000000, 0.000000000000000000, -1.000000000000000000 ) ) ;
#188 = TOROIDAL_SURFACE ( 'NONE', #219, 3.949999999999999734, 0.2000000000000000111 ) ;
#189 = APPROVAL_ROLE ( '' ) ;
#190 = APPROVAL_STATUS ( 'not_yet_approved' ) ;
#191 = ORIENTED_EDGE ( 'NONE', *, *, #199, .F. ) ;
#192 = DATE_AND_TIME ( #166, #57 ) ;
#193 = CIRCLE ( 'NONE', #2, 6.000000000000000888 ) ;
#194 = DATE_AND_TIME ( #119, #147 ) ;
#195 = ORIENTED_EDGE ( 'NONE', *, *, #118, .F. ) ;
#196 = PERSON_AND_ORGANIZATION_ROLE ( 'design_supplier' ) ;
#197 = ORIENTED_EDGE ( 'NONE', *, *, #53, .F. ) ;
#198 = CALENDAR_DATE ( 2022, 7, 7 ) ;
#199 = EDGE_CURVE ( 'NONE', #171, #43, #67, .T. ) ;
#200 = FACE_OUTER_BOUND ( 'NONE', #246, .T. ) ;
#201 = CC_DESIGN_SECURITY_CLASSIFICATION ( #230, ( #103 ) ) ;
#202 = CARTESIAN_POINT ( 'NONE',  ( 0.000000000000000000, 0.000000000000000000, 0.000000000000000000 ) ) ;
#203 = APPROVAL ( #120, 'NEURÈENÝ' ) ;
#204 = DIRECTION ( 'NONE',  ( 1.000000000000000000, 0.000000000000000000, 0.000000000000000000 ) ) ;
#205 = CARTESIAN_POINT ( 'NONE',  ( 3.949999999999999734, 0.000000000000000000, 4.999999999999998224 ) ) ;
#206 = CC_DESIGN_APPROVAL ( #89, ( #103 ) ) ;
#207 = DIRECTION ( 'NONE',  ( 0.000000000000000000, 0.000000000000000000, 1.000000000000000000 ) ) ;
#208 = UNCERTAINTY_MEASURE_WITH_UNIT (LENGTH_MEASURE( 1.000000000000000082E-05 ), #218, 'distance_accuracy_value', 'NONE');
#209 = DIRECTION ( 'NONE',  ( 0.000000000000000000, 0.000000000000000000, 1.000000000000000000 ) ) ;
#210 = EDGE_CURVE ( 'NONE', #106, #245, #212, .T. ) ;
#211 = DIRECTION ( 'NONE',  ( -0.000000000000000000, -0.000000000000000000, -1.000000000000000000 ) ) ;
#212 = CIRCLE ( 'NONE', #279, 0.1999999999999996503 ) ;
#213 = DIRECTION ( 'NONE',  ( 0.000000000000000000, -1.000000000000000000, 0.000000000000000000 ) ) ;
#214 = DIRECTION ( 'NONE',  ( 1.000000000000000000, 0.000000000000000000, 0.000000000000000000 ) ) ;
#215 = CARTESIAN_POINT ( 'NONE',  ( 0.000000000000000000, 0.000000000000000000, 5.000000000000000000 ) ) ;
#216 = TOROIDAL_SURFACE ( 'NONE', #263, 3.949999999999999734, 0.2000000000000000111 ) ;
#217 = APPLICATION_PROTOCOL_DEFINITION ( 'international standard', 'config_control_design', 1994, #37 ) ;
#218 =( LENGTH_UNIT ( ) NAMED_UNIT ( * ) SI_UNIT ( .MILLI., .METRE. ) );
#219 = AXIS2_PLACEMENT_3D ( 'NONE', #186, #115, #68 ) ;
#220 = LOCAL_TIME ( 14, 36, 15.00000000000000000, #285 ) ;
#221 = APPROVAL_ROLE ( '' ) ;
#222 = ORIENTED_EDGE ( 'NONE', *, *, #30, .T. ) ;
#223 = ORIENTED_EDGE ( 'NONE', *, *, #109, .F. ) ;
#224 = AXIS2_PLACEMENT_3D ( 'NONE', #17, #15, #273 ) ;
#225 = APPROVAL_DATE_TIME ( #154, #180 ) ;
#226 = ORIENTED_EDGE ( 'NONE', *, *, #118, .T. ) ;
#227 = EDGE_CURVE ( 'NONE', #149, #172, #252, .T. ) ;
#228 = ORIENTED_EDGE ( 'NONE', *, *, #227, .F. ) ;
#229 = FACE_OUTER_BOUND ( 'NONE', #71, .T. ) ;
#230 = SECURITY_CLASSIFICATION ( '', '', #283 ) ;
#231 = DIRECTION ( 'NONE',  ( -0.000000000000000000, -0.000000000000000000, -1.000000000000000000 ) ) ;
#232 = PLANE ( 'NONE',  #9 ) ;
#233 = EDGE_CURVE ( 'NONE', #144, #172, #18, .T. ) ;
#234 = FACE_OUTER_BOUND ( 'NONE', #33, .T. ) ;
#235 = LOCAL_TIME ( 14, 36, 15.00000000000000000, #58 ) ;
#236 = DIRECTION ( 'NONE',  ( -0.000000000000000000, -0.000000000000000000, -1.000000000000000000 ) ) ;
#237 = DIRECTION ( 'NONE',  ( 1.000000000000000000, 0.000000000000000000, 0.000000000000000000 ) ) ;
#238 = PERSON_AND_ORGANIZATION ( #48, #163 ) ;
#239 = CALENDAR_DATE ( 2022, 7, 7 ) ;
#240 = ORIENTED_EDGE ( 'NONE', *, *, #233, .T. ) ;
#241 = PERSON_AND_ORGANIZATION ( #48, #163 ) ;
#242 = ORIENTED_EDGE ( 'NONE', *, *, #210, .T. ) ;
#243 = EDGE_LOOP ( 'NONE', ( #52, #152 ) ) ;
#244 = CARTESIAN_POINT ( 'NONE',  ( 3.750000000000000000, 4.592425496802573972E-16, 5.199999999999996625 ) ) ;
#245 = VERTEX_POINT ( 'NONE', #135 ) ;
#246 = EDGE_LOOP ( 'NONE', ( #76, #124 ) ) ;
#247 = ORIENTED_EDGE ( 'NONE', *, *, #86, .F. ) ;
#248 = LOCAL_TIME ( 14, 36, 15.00000000000000000, #70 ) ;
#249 = CARTESIAN_POINT ( 'NONE',  ( -6.000000000000000888, 0.000000000000000000, 5.000000000000000000 ) ) ;
#250 = CC_DESIGN_PERSON_AND_ORGANIZATION_ASSIGNMENT ( #97, #148, ( #5 ) ) ;
#251 = DIRECTION ( 'NONE',  ( -0.000000000000000000, -0.000000000000000000, -1.000000000000000000 ) ) ;
#252 = LINE ( 'NONE', #112, #286 ) ;
#253 = AXIS2_PLACEMENT_3D ( 'NONE', #51, #257, #165 ) ;
#254 = DIRECTION ( 'NONE',  ( 0.000000000000000000, 0.000000000000000000, 1.000000000000000000 ) ) ;
#255 = CARTESIAN_POINT ( 'NONE',  ( -6.000000000000000888, 0.000000000000000000, 0.000000000000000000 ) ) ;
#256 = EDGE_LOOP ( 'NONE', ( #122, #247, #98, #55 ) ) ;
#257 = DIRECTION ( 'NONE',  ( 0.000000000000000000, 0.000000000000000000, 1.000000000000000000 ) ) ;
#258 = EDGE_LOOP ( 'NONE', ( #294, #289 ) ) ;
#259 = CALENDAR_DATE ( 2022, 7, 7 ) ;
#260 = MECHANICAL_CONTEXT ( 'NONE', #46, 'mechanical' ) ;
#261 = ORIENTED_EDGE ( 'NONE', *, *, #30, .F. ) ;
#262 = PRODUCT_RELATED_PRODUCT_CATEGORY ( 'detail', '', ( #5 ) ) ;
#263 = AXIS2_PLACEMENT_3D ( 'NONE', #19, #175, #204 ) ;
#264 = FACE_OUTER_BOUND ( 'NONE', #60, .T. ) ;
#265 = ORIENTED_EDGE ( 'NONE', *, *, #266, .F. ) ;
#266 = EDGE_CURVE ( 'NONE', #106, #43, #11, .T. ) ;
#267 = FACE_OUTER_BOUND ( 'NONE', #258, .T. ) ;
#268 = CIRCLE ( 'NONE', #136, 3.949999999999999734 ) ;
#269 = AXIS2_PLACEMENT_3D ( 'NONE', #300, #302, #87 ) ;
#270 = CC_DESIGN_APPROVAL ( #203, ( #23 ) ) ;
#271 = CC_DESIGN_DATE_AND_TIME_ASSIGNMENT ( #169, #121, ( #230 ) ) ;
#272 = LINE ( 'NONE', #59, #158 ) ;
#273 = DIRECTION ( 'NONE',  ( 1.000000000000000000, 0.000000000000000000, 0.000000000000000000 ) ) ;
#274 = CARTESIAN_POINT ( 'NONE',  ( 0.000000000000000000, 0.000000000000000000, 5.000000000000000000 ) ) ;
#275 = AXIS2_PLACEMENT_3D ( 'NONE', #91, #213, #187 ) ;
#276 = FACE_OUTER_BOUND ( 'NONE', #69, .T. ) ;
#277 = CARTESIAN_POINT ( 'NONE',  ( 0.000000000000000000, 0.000000000000000000, 5.000000000000000000 ) ) ;
#278 = CARTESIAN_POINT ( 'NONE',  ( 0.000000000000000000, 0.000000000000000000, 5.000000000000000000 ) ) ;
#279 = AXIS2_PLACEMENT_3D ( 'NONE', #162, #299, #132 ) ;
#280 = CARTESIAN_POINT ( 'NONE',  ( 0.000000000000000000, 0.000000000000000000, 130.0000000000000000 ) ) ;
#281 = DIRECTION ( 'NONE',  ( -0.000000000000000000, -0.000000000000000000, -1.000000000000000000 ) ) ;
#282 = ORIENTED_EDGE ( 'NONE', *, *, #145, .F. ) ;
#283 = SECURITY_CLASSIFICATION_LEVEL ( 'unclassified' ) ;
#284 = CC_DESIGN_PERSON_AND_ORGANIZATION_ASSIGNMENT ( #168, #196, ( #103 ) ) ;
#285 = COORDINATED_UNIVERSAL_TIME_OFFSET ( 1, 0, .AHEAD. ) ;
#286 = VECTOR ( 'NONE', #211, 1000.000000000000000 ) ;
#287 = PERSON_AND_ORGANIZATION_ROLE ( 'classification_officer' ) ;
#288 = LINE ( 'NONE', #170, #45 ) ;
#289 = ORIENTED_EDGE ( 'NONE', *, *, #233, .F. ) ;
#290 = CIRCLE ( 'NONE', #157, 3.750000000000000000 ) ;
#291 = CIRCLE ( 'NONE', #224, 3.750000000000000000 ) ;
#292 = ORIENTED_EDGE ( 'NONE', *, *, #109, .T. ) ;
#293 = CARTESIAN_POINT ( 'NONE',  ( 0.000000000000000000, 0.000000000000000000, 5.000000000000000000 ) ) ;
#294 = ORIENTED_EDGE ( 'NONE', *, *, #137, .F. ) ;
#295 = ADVANCED_FACE ( 'NONE', ( #90 ), #185, .T. ) ;
#296 = DIRECTION ( 'NONE',  ( -1.000000000000000000, 0.000000000000000000, 0.000000000000000000 ) ) ;
#297 = CLOSED_SHELL ( 'NONE', ( #8, #4, #181, #295, #73, #16, #66, #10, #139 ) ) ;
#298 = PLANE ( 'NONE',  #146 ) ;
#299 = DIRECTION ( 'NONE',  ( 1.224646799147353207E-16, 1.000000000000000000, -0.000000000000000000 ) ) ;
#300 = CARTESIAN_POINT ( 'NONE',  ( 0.000000000000000000, 0.000000000000000000, 5.199999999999996625 ) ) ;
#301 = APPROVAL_PERSON_ORGANIZATION ( #238, #203, #221 ) ;
#302 = DIRECTION ( 'NONE',  ( 0.000000000000000000, 0.000000000000000000, 1.000000000000000000 ) ) ;
#303 = DIRECTION ( 'NONE',  ( 0.000000000000000000, 0.000000000000000000, 1.000000000000000000 ) ) ;
#304 = DIRECTION ( 'NONE',  ( 0.000000000000000000, 0.000000000000000000, 1.000000000000000000 ) ) ;
#305 = PERSON_AND_ORGANIZATION ( #48, #163 ) ;
#306 = APPROVAL_DATE_TIME ( #194, #203 ) ;
#307 = EDGE_CURVE ( 'NONE', #79, #144, #288, .T. ) ;
ENDSEC;
END-ISO-10303-21;
