ISO-10303-21;
HEADER;
FILE_DESCRIPTION (( 'STEP AP203' ),
    '1' );
FILE_NAME ('b83a.STEP',
    '2023-02-12T10:48:30',
    ( '' ),
    ( '' ),
    'SwSTEP 2.0',
    'SolidWorks 2019',
    '' );
FILE_SCHEMA (( 'CONFIG_CONTROL_DESIGN' ));
ENDSEC;

DATA;
#1 = PERSON_AND_ORGANIZATION ( #132, #89 ) ;
#2 = PERSON_AND_ORGANIZATION ( #132, #89 ) ;
#3 = EDGE_CURVE ( 'NONE', #228, #74, #207, .T. ) ;
#4 = CYLINDRICAL_SURFACE ( 'NONE', #57, 7.000000000000000000 ) ;
#5 = DIRECTION ( 'NONE',  ( -0.000000000000000000, -0.000000000000000000, -1.000000000000000000 ) ) ;
#6 = SHAPE_DEFINITION_REPRESENTATION ( #200, #189 ) ;
#7 = EDGE_LOOP ( 'NONE', ( #219, #234, #244, #91 ) ) ;
#8 = DATE_AND_TIME ( #71, #214 ) ;
#9 = DIRECTION ( 'NONE',  ( 0.000000000000000000, 0.000000000000000000, 1.000000000000000000 ) ) ;
#10 = ORIENTED_EDGE ( 'NONE', *, *, #47, .T. ) ;
#11 = PRODUCT_RELATED_PRODUCT_CATEGORY ( 'detail', '', ( #27 ) ) ;
#12 = VERTEX_POINT ( 'NONE', #252 ) ;
#13 = COORDINATED_UNIVERSAL_TIME_OFFSET ( 1, 0, .AHEAD. ) ;
#14 = SECURITY_CLASSIFICATION_LEVEL ( 'unclassified' ) ;
#15 = VERTEX_POINT ( 'NONE', #101 ) ;
#16 = DIRECTION ( 'NONE',  ( 1.000000000000000000, 0.000000000000000000, 0.000000000000000000 ) ) ;
#17 = CARTESIAN_POINT ( 'NONE',  ( -7.000000000000000000, 0.000000000000000000, 100.0000000000000000 ) ) ;
#18 = CARTESIAN_POINT ( 'NONE',  ( -11.00000000000000000, 0.000000000000000000, 0.000000000000000000 ) ) ;
#19 = LINE ( 'NONE', #79, #67 ) ;
#20 = CARTESIAN_POINT ( 'NONE',  ( 0.000000000000000000, 0.000000000000000000, 7.000000000000000000 ) ) ;
#21 = CIRCLE ( 'NONE', #106, 7.000000000000000000 ) ;
#22 = AXIS2_PLACEMENT_3D ( 'NONE', #69, #202, #30 ) ;
#23 = CC_DESIGN_PERSON_AND_ORGANIZATION_ASSIGNMENT ( #73, #205, ( #77 ) ) ;
#24 = CIRCLE ( 'NONE', #22, 7.000000000000000000 ) ;
#25 = DIRECTION ( 'NONE',  ( -0.000000000000000000, -0.000000000000000000, -1.000000000000000000 ) ) ;
#26 = EDGE_LOOP ( 'NONE', ( #111, #144 ) ) ;
#27 = PRODUCT ( 'b83a', 'b83a', '', ( #184 ) ) ;
#28 = CARTESIAN_POINT ( 'NONE',  ( 0.000000000000000000, 0.000000000000000000, 0.000000000000000000 ) ) ;
#29 = APPROVAL ( #83, 'NEURÈENÝ' ) ;
#30 = DIRECTION ( 'NONE',  ( 1.000000000000000000, 0.000000000000000000, 0.000000000000000000 ) ) ;
#31 = APPROVAL_DATE_TIME ( #8, #134 ) ;
#32 = CARTESIAN_POINT ( 'NONE',  ( 0.000000000000000000, 0.000000000000000000, 0.000000000000000000 ) ) ;
#33 = DIRECTION ( 'NONE',  ( 0.000000000000000000, 0.000000000000000000, 1.000000000000000000 ) ) ;
#34 = CARTESIAN_POINT ( 'NONE',  ( 0.000000000000000000, 0.000000000000000000, 7.000000000000000000 ) ) ;
#35 = APPLICATION_PROTOCOL_DEFINITION ( 'international standard', 'config_control_design', 1994, #70 ) ;
#36 = LOCAL_TIME ( 11, 48, 30.00000000000000000, #45 ) ;
#37 = DIRECTION ( 'NONE',  ( -0.000000000000000000, -0.000000000000000000, -1.000000000000000000 ) ) ;
#38 = CALENDAR_DATE ( 2023, 12, 2 ) ;
#39 = EDGE_CURVE ( 'NONE', #15, #248, #19, .T. ) ;
#40 = AXIS2_PLACEMENT_3D ( 'NONE', #72, #185, #78 ) ;
#41 = APPROVAL_ROLE ( '' ) ;
#42 = EDGE_CURVE ( 'NONE', #76, #12, #21, .T. ) ;
#43 = CALENDAR_DATE ( 2023, 12, 2 ) ;
#44 = DIRECTION ( 'NONE',  ( -0.000000000000000000, -0.000000000000000000, -1.000000000000000000 ) ) ;
#45 = COORDINATED_UNIVERSAL_TIME_OFFSET ( 1, 0, .AHEAD. ) ;
#46 = CARTESIAN_POINT ( 'NONE',  ( 0.000000000000000000, 0.000000000000000000, 100.0000000000000000 ) ) ;
#47 = EDGE_CURVE ( 'NONE', #233, #105, #149, .T. ) ;
#48 = PERSON_AND_ORGANIZATION_ROLE ( 'design_supplier' ) ;
#49 = ORIENTED_EDGE ( 'NONE', *, *, #174, .F. ) ;
#50 = ORIENTED_EDGE ( 'NONE', *, *, #231, .T. ) ;
#51 = APPROVAL_PERSON_ORGANIZATION ( #161, #134, #126 ) ;
#52 = ADVANCED_FACE ( 'NONE', ( #90, #135 ), #68, .T. ) ;
#53 = LINE ( 'NONE', #17, #170 ) ;
#54 = PLANE ( 'NONE',  #95 ) ;
#55 = PERSON_AND_ORGANIZATION_ROLE ( 'design_owner' ) ;
#56 = DIRECTION ( 'NONE',  ( 0.000000000000000000, 0.000000000000000000, 1.000000000000000000 ) ) ;
#57 = AXIS2_PLACEMENT_3D ( 'NONE', #171, #5, #139 ) ;
#58 = CARTESIAN_POINT ( 'NONE',  ( 11.00000000000000000, 1.347111479062088405E-15, 7.000000000000000000 ) ) ;
#59 = APPLICATION_CONTEXT ( 'configuration controlled 3d designs of mechanical parts and assemblies' ) ;
#60 = CC_DESIGN_DATE_AND_TIME_ASSIGNMENT ( #211, #173, ( #63 ) ) ;
#61 = ADVANCED_FACE ( 'NONE', ( #176 ), #155, .T. ) ;
#62 = ORIENTED_EDGE ( 'NONE', *, *, #42, .T. ) ;
#63 = PRODUCT_DEFINITION ( 'NEZNÁMÝ', '', #82, #163 ) ;
#64 = CARTESIAN_POINT ( 'NONE',  ( -7.000000000000000000, 0.000000000000000000, 100.0000000000000000 ) ) ;
#65 = ORIENTED_EDGE ( 'NONE', *, *, #129, .T. ) ;
#66 = DIRECTION ( 'NONE',  ( -1.000000000000000000, 0.000000000000000000, 0.000000000000000000 ) ) ;
#67 = VECTOR ( 'NONE', #165, 1000.000000000000000 ) ;
#68 = PLANE ( 'NONE',  #130 ) ;
#69 = CARTESIAN_POINT ( 'NONE',  ( 0.000000000000000000, 0.000000000000000000, 100.0000000000000000 ) ) ;
#70 = APPLICATION_CONTEXT ( 'configuration controlled 3d designs of mechanical parts and assemblies' ) ;
#71 = CALENDAR_DATE ( 2023, 12, 2 ) ;
#72 = CARTESIAN_POINT ( 'NONE',  ( 0.000000000000000000, 0.000000000000000000, 7.000000000000000000 ) ) ;
#73 = PERSON_AND_ORGANIZATION ( #132, #89 ) ;
#74 = VERTEX_POINT ( 'NONE', #64 ) ;
#75 = CARTESIAN_POINT ( 'NONE',  ( 0.000000000000000000, 0.000000000000000000, 7.000000000000000000 ) ) ;
#76 = VERTEX_POINT ( 'NONE', #216 ) ;
#77 = SECURITY_CLASSIFICATION ( '', '', #14 ) ;
#78 = DIRECTION ( 'NONE',  ( 1.000000000000000000, 0.000000000000000000, 0.000000000000000000 ) ) ;
#79 = CARTESIAN_POINT ( 'NONE',  ( -11.00000000000000000, 0.000000000000000000, 7.000000000000000000 ) ) ;
#80 = DIRECTION ( 'NONE',  ( 1.000000000000000000, 0.000000000000000000, 0.000000000000000000 ) ) ;
#81 = ADVANCED_FACE ( 'NONE', ( #195 ), #92, .T. ) ;
#82 = PRODUCT_DEFINITION_FORMATION_WITH_SPECIFIED_SOURCE ( 'LIBOVOLNÝ', '', #27, .NOT_KNOWN. ) ;
#83 = APPROVAL_STATUS ( 'not_yet_approved' ) ;
#84 = CC_DESIGN_PERSON_AND_ORGANIZATION_ASSIGNMENT ( #2, #194, ( #82 ) ) ;
#85 = APPROVAL_DATE_TIME ( #167, #29 ) ;
#86 = CARTESIAN_POINT ( 'NONE',  ( 7.000000000000000000, 8.572527594031471218E-16, 100.0000000000000000 ) ) ;
#87 = ADVANCED_FACE ( 'NONE', ( #172 ), #107, .T. ) ;
#88 = APPROVAL_STATUS ( 'not_yet_approved' ) ;
#89 = ORGANIZATION ( 'NEURÈENÝ', 'NEURÈENÝ', '' ) ;
#90 = FACE_BOUND ( 'NONE', #178, .T. ) ;
#91 = ORIENTED_EDGE ( 'NONE', *, *, #236, .T. ) ;
#92 = CYLINDRICAL_SURFACE ( 'NONE', #198, 11.00000000000000000 ) ;
#93 = ORIENTED_EDGE ( 'NONE', *, *, #215, .F. ) ;
#94 = CIRCLE ( 'NONE', #210, 11.00000000000000000 ) ;
#95 = AXIS2_PLACEMENT_3D ( 'NONE', #28, #9, #159 ) ;
#96 = ORIENTED_EDGE ( 'NONE', *, *, #3, .T. ) ;
#97 = CARTESIAN_POINT ( 'NONE',  ( 11.00000000000000000, 1.347111479062088405E-15, 7.000000000000000000 ) ) ;
#98 = EDGE_LOOP ( 'NONE', ( #50, #96 ) ) ;
#99 = AXIS2_PLACEMENT_3D ( 'NONE', #46, #25, #66 ) ;
#100 = DIRECTION ( 'NONE',  ( 1.000000000000000000, 0.000000000000000000, -0.000000000000000000 ) ) ;
#101 = CARTESIAN_POINT ( 'NONE',  ( -11.00000000000000000, 0.000000000000000000, 7.000000000000000000 ) ) ;
#102 = CARTESIAN_POINT ( 'NONE',  ( 0.000000000000000000, 0.000000000000000000, 0.000000000000000000 ) ) ;
#103 = CC_DESIGN_SECURITY_CLASSIFICATION ( #77, ( #82 ) ) ;
#104 = CALENDAR_DATE ( 2023, 12, 2 ) ;
#105 = VERTEX_POINT ( 'NONE', #197 ) ;
#106 = AXIS2_PLACEMENT_3D ( 'NONE', #34, #253, #80 ) ;
#107 = CYLINDRICAL_SURFACE ( 'NONE', #99, 7.000000000000000000 ) ;
#108 = DIRECTION ( 'NONE',  ( -1.000000000000000000, 0.000000000000000000, 0.000000000000000000 ) ) ;
#109 = PERSON_AND_ORGANIZATION ( #132, #89 ) ;
#110 = AXIS2_PLACEMENT_3D ( 'NONE', #102, #190, #16 ) ;
#111 = ORIENTED_EDGE ( 'NONE', *, *, #174, .T. ) ;
#112 = CALENDAR_DATE ( 2023, 12, 2 ) ;
#113 = DATE_AND_TIME ( #112, #203 ) ;
#114 =( NAMED_UNIT ( * ) SI_UNIT ( $, .STERADIAN. ) SOLID_ANGLE_UNIT ( ) );
#115 = APPROVAL_STATUS ( 'not_yet_approved' ) ;
#116 = CIRCLE ( 'NONE', #193, 11.00000000000000000 ) ;
#117 = ADVANCED_FACE ( 'NONE', ( #142 ), #4, .T. ) ;
#118 = CIRCLE ( 'NONE', #120, 7.000000000000000000 ) ;
#119 = EDGE_CURVE ( 'NONE', #228, #76, #124, .T. ) ;
#120 = AXIS2_PLACEMENT_3D ( 'NONE', #20, #168, #150 ) ;
#121 = COORDINATED_UNIVERSAL_TIME_OFFSET ( 1, 0, .AHEAD. ) ;
#122 = CC_DESIGN_PERSON_AND_ORGANIZATION_ASSIGNMENT ( #1, #55, ( #27 ) ) ;
#123 = CARTESIAN_POINT ( 'NONE',  ( 0.000000000000000000, 0.000000000000000000, 7.000000000000000000 ) ) ;
#124 = LINE ( 'NONE', #86, #156 ) ;
#125 = CARTESIAN_POINT ( 'NONE',  ( 0.000000000000000000, 0.000000000000000000, 7.000000000000000000 ) ) ;
#126 = APPROVAL_ROLE ( '' ) ;
#127 = ADVANCED_FACE ( 'NONE', ( #153 ), #235, .T. ) ;
#128 = ORIENTED_EDGE ( 'NONE', *, *, #47, .F. ) ;
#129 = EDGE_CURVE ( 'NONE', #105, #248, #94, .T. ) ;
#130 = AXIS2_PLACEMENT_3D ( 'NONE', #125, #212, #137 ) ;
#131 = DIRECTION ( 'NONE',  ( 1.000000000000000000, 0.000000000000000000, 0.000000000000000000 ) ) ;
#132 = PERSON ( 'NEURÈENÝ', 'NEURÈENÝ', 'NEURÈENÝ', ('NEURÈENÝ'), ('NEURÈENÝ'), ('NEURÈENÝ') ) ;
#133 = ORIENTED_EDGE ( 'NONE', *, *, #119, .T. ) ;
#134 = APPROVAL ( #115, 'NEURÈENÝ' ) ;
#135 = FACE_OUTER_BOUND ( 'NONE', #26, .T. ) ;
#136 = CC_DESIGN_APPROVAL ( #134, ( #77 ) ) ;
#137 = DIRECTION ( 'NONE',  ( 1.000000000000000000, 0.000000000000000000, -0.000000000000000000 ) ) ;
#138 = PERSON_AND_ORGANIZATION ( #132, #89 ) ;
#139 = DIRECTION ( 'NONE',  ( -1.000000000000000000, 0.000000000000000000, 0.000000000000000000 ) ) ;
#140 = CLOSED_SHELL ( 'NONE', ( #87, #81, #61, #52, #226, #117, #127 ) ) ;
#141 = APPROVAL_PERSON_ORGANIZATION ( #229, #29, #209 ) ;
#142 = FACE_OUTER_BOUND ( 'NONE', #7, .T. ) ;
#143 = FACE_OUTER_BOUND ( 'NONE', #160, .T. ) ;
#144 = ORIENTED_EDGE ( 'NONE', *, *, #158, .T. ) ;
#145 =( NAMED_UNIT ( * ) PLANE_ANGLE_UNIT ( ) SI_UNIT ( $, .RADIAN. ) );
#146 = DIRECTION ( 'NONE',  ( 1.000000000000000000, 0.000000000000000000, 0.000000000000000000 ) ) ;
#147 = ORIENTED_EDGE ( 'NONE', *, *, #39, .T. ) ;
#148 = EDGE_LOOP ( 'NONE', ( #225, #10, #65, #239 ) ) ;
#149 = LINE ( 'NONE', #58, #241 ) ;
#150 = DIRECTION ( 'NONE',  ( 1.000000000000000000, 0.000000000000000000, 0.000000000000000000 ) ) ;
#151 = DIRECTION ( 'NONE',  ( 0.000000000000000000, 0.000000000000000000, 1.000000000000000000 ) ) ;
#152 = DIRECTION ( 'NONE',  ( -0.000000000000000000, -0.000000000000000000, -1.000000000000000000 ) ) ;
#153 = FACE_OUTER_BOUND ( 'NONE', #98, .T. ) ;
#154 = CIRCLE ( 'NONE', #40, 11.00000000000000000 ) ;
#155 = CYLINDRICAL_SURFACE ( 'NONE', #249, 11.00000000000000000 ) ;
#156 = VECTOR ( 'NONE', #152, 1000.000000000000000 ) ;
#157 = EDGE_LOOP ( 'NONE', ( #204, #133, #62, #223 ) ) ;
#158 = EDGE_CURVE ( 'NONE', #233, #15, #154, .T. ) ;
#159 = DIRECTION ( 'NONE',  ( 1.000000000000000000, 0.000000000000000000, -0.000000000000000000 ) ) ;
#160 = EDGE_LOOP ( 'NONE', ( #93, #183 ) ) ;
#161 = PERSON_AND_ORGANIZATION ( #132, #89 ) ;
#162 = APPROVAL_PERSON_ORGANIZATION ( #109, #196, #41 ) ;
#163 = DESIGN_CONTEXT ( 'detailed design', #70, 'design' ) ;
#164 = DIRECTION ( 'NONE',  ( 0.000000000000000000, 0.000000000000000000, 1.000000000000000000 ) ) ;
#165 = DIRECTION ( 'NONE',  ( -0.000000000000000000, -0.000000000000000000, -1.000000000000000000 ) ) ;
#166 = CC_DESIGN_PERSON_AND_ORGANIZATION_ASSIGNMENT ( #138, #48, ( #82 ) ) ;
#167 = DATE_AND_TIME ( #38, #175 ) ;
#168 = DIRECTION ( 'NONE',  ( 0.000000000000000000, 0.000000000000000000, 1.000000000000000000 ) ) ;
#169 = APPROVAL_DATE_TIME ( #238, #196 ) ;
#170 = VECTOR ( 'NONE', #243, 1000.000000000000000 ) ;
#171 = CARTESIAN_POINT ( 'NONE',  ( 0.000000000000000000, 0.000000000000000000, 100.0000000000000000 ) ) ;
#172 = FACE_OUTER_BOUND ( 'NONE', #157, .T. ) ;
#173 = DATE_TIME_ROLE ( 'creation_date' ) ;
#174 = EDGE_CURVE ( 'NONE', #15, #233, #116, .T. ) ;
#175 = LOCAL_TIME ( 11, 48, 30.00000000000000000, #187 ) ;
#176 = FACE_OUTER_BOUND ( 'NONE', #206, .T. ) ;
#177 = MANIFOLD_SOLID_BREP ( 'Pøidat vysunutím3', #140 ) ;
#178 = EDGE_LOOP ( 'NONE', ( #218, #222 ) ) ;
#179 = COORDINATED_UNIVERSAL_TIME_OFFSET ( 1, 0, .AHEAD. ) ;
#180 = DIRECTION ( 'NONE',  ( -0.000000000000000000, -0.000000000000000000, -1.000000000000000000 ) ) ;
#181 = AXIS2_PLACEMENT_3D ( 'NONE', #217, #33, #100 ) ;
#182 = CC_DESIGN_APPROVAL ( #29, ( #63 ) ) ;
#183 = ORIENTED_EDGE ( 'NONE', *, *, #129, .F. ) ;
#184 = MECHANICAL_CONTEXT ( 'NONE', #59, 'mechanical' ) ;
#185 = DIRECTION ( 'NONE',  ( 0.000000000000000000, 0.000000000000000000, 1.000000000000000000 ) ) ;
#186 = CARTESIAN_POINT ( 'NONE',  ( 0.000000000000000000, 0.000000000000000000, 100.0000000000000000 ) ) ;
#187 = COORDINATED_UNIVERSAL_TIME_OFFSET ( 1, 0, .AHEAD. ) ;
#188 = CC_DESIGN_PERSON_AND_ORGANIZATION_ASSIGNMENT ( #232, #213, ( #63 ) ) ;
#189 = ADVANCED_BREP_SHAPE_REPRESENTATION ( 'b83a', ( #177, #110 ), #230 ) ;
#190 = DIRECTION ( 'NONE',  ( 0.000000000000000000, 0.000000000000000000, 1.000000000000000000 ) ) ;
#191 = UNCERTAINTY_MEASURE_WITH_UNIT (LENGTH_MEASURE( 1.000000000000000082E-05 ), #255, 'distance_accuracy_value', 'NONE');
#192 = CIRCLE ( 'NONE', #199, 11.00000000000000000 ) ;
#193 = AXIS2_PLACEMENT_3D ( 'NONE', #75, #164, #146 ) ;
#194 = PERSON_AND_ORGANIZATION_ROLE ( 'creator' ) ;
#195 = FACE_OUTER_BOUND ( 'NONE', #148, .T. ) ;
#196 = APPROVAL ( #88, 'NEURÈENÝ' ) ;
#197 = CARTESIAN_POINT ( 'NONE',  ( 11.00000000000000000, 1.347111479062088405E-15, 0.000000000000000000 ) ) ;
#198 = AXIS2_PLACEMENT_3D ( 'NONE', #123, #44, #108 ) ;
#199 = AXIS2_PLACEMENT_3D ( 'NONE', #227, #56, #131 ) ;
#200 = PRODUCT_DEFINITION_SHAPE ( 'NONE', 'NONE',  #63 ) ;
#201 = DIRECTION ( 'NONE',  ( -1.000000000000000000, 0.000000000000000000, 0.000000000000000000 ) ) ;
#202 = DIRECTION ( 'NONE',  ( 0.000000000000000000, 0.000000000000000000, 1.000000000000000000 ) ) ;
#203 = LOCAL_TIME ( 11, 48, 30.00000000000000000, #13 ) ;
#204 = ORIENTED_EDGE ( 'NONE', *, *, #3, .F. ) ;
#205 = PERSON_AND_ORGANIZATION_ROLE ( 'classification_officer' ) ;
#206 = EDGE_LOOP ( 'NONE', ( #128, #49, #147, #242 ) ) ;
#207 = CIRCLE ( 'NONE', #237, 7.000000000000000000 ) ;
#208 = EDGE_CURVE ( 'NONE', #74, #12, #53, .T. ) ;
#209 = APPROVAL_ROLE ( '' ) ;
#210 = AXIS2_PLACEMENT_3D ( 'NONE', #32, #247, #251 ) ;
#211 = DATE_AND_TIME ( #43, #220 ) ;
#212 = DIRECTION ( 'NONE',  ( 0.000000000000000000, 0.000000000000000000, 1.000000000000000000 ) ) ;
#213 = PERSON_AND_ORGANIZATION_ROLE ( 'creator' ) ;
#214 = LOCAL_TIME ( 11, 48, 30.00000000000000000, #179 ) ;
#215 = EDGE_CURVE ( 'NONE', #248, #105, #192, .T. ) ;
#216 = CARTESIAN_POINT ( 'NONE',  ( 7.000000000000000000, 8.572527594031471218E-16, 7.000000000000000000 ) ) ;
#217 = CARTESIAN_POINT ( 'NONE',  ( 0.000000000000000000, 0.000000000000000000, 100.0000000000000000 ) ) ;
#218 = ORIENTED_EDGE ( 'NONE', *, *, #236, .F. ) ;
#219 = ORIENTED_EDGE ( 'NONE', *, *, #119, .F. ) ;
#220 = LOCAL_TIME ( 11, 48, 30.00000000000000000, #121 ) ;
#221 = DATE_TIME_ROLE ( 'classification_date' ) ;
#222 = ORIENTED_EDGE ( 'NONE', *, *, #42, .F. ) ;
#223 = ORIENTED_EDGE ( 'NONE', *, *, #208, .F. ) ;
#224 = CARTESIAN_POINT ( 'NONE',  ( 7.000000000000000000, 8.572527594031471218E-16, 100.0000000000000000 ) ) ;
#225 = ORIENTED_EDGE ( 'NONE', *, *, #158, .F. ) ;
#226 = ADVANCED_FACE ( 'NONE', ( #143 ), #54, .F. ) ;
#227 = CARTESIAN_POINT ( 'NONE',  ( 0.000000000000000000, 0.000000000000000000, 0.000000000000000000 ) ) ;
#228 = VERTEX_POINT ( 'NONE', #224 ) ;
#229 = PERSON_AND_ORGANIZATION ( #132, #89 ) ;
#230 =( GEOMETRIC_REPRESENTATION_CONTEXT ( 3 ) GLOBAL_UNCERTAINTY_ASSIGNED_CONTEXT ( ( #191 ) ) GLOBAL_UNIT_ASSIGNED_CONTEXT ( ( #255, #145, #114 ) ) REPRESENTATION_CONTEXT ( 'NONE', 'WORKASPACE' ) );
#231 = EDGE_CURVE ( 'NONE', #74, #228, #24, .T. ) ;
#232 = PERSON_AND_ORGANIZATION ( #132, #89 ) ;
#233 = VERTEX_POINT ( 'NONE', #97 ) ;
#234 = ORIENTED_EDGE ( 'NONE', *, *, #231, .F. ) ;
#235 = PLANE ( 'NONE',  #181 ) ;
#236 = EDGE_CURVE ( 'NONE', #12, #76, #118, .T. ) ;
#237 = AXIS2_PLACEMENT_3D ( 'NONE', #186, #151, #250 ) ;
#238 = DATE_AND_TIME ( #104, #36 ) ;
#239 = ORIENTED_EDGE ( 'NONE', *, *, #39, .F. ) ;
#240 = CARTESIAN_POINT ( 'NONE',  ( 0.000000000000000000, 0.000000000000000000, 7.000000000000000000 ) ) ;
#241 = VECTOR ( 'NONE', #37, 1000.000000000000000 ) ;
#242 = ORIENTED_EDGE ( 'NONE', *, *, #215, .T. ) ;
#243 = DIRECTION ( 'NONE',  ( -0.000000000000000000, -0.000000000000000000, -1.000000000000000000 ) ) ;
#244 = ORIENTED_EDGE ( 'NONE', *, *, #208, .T. ) ;
#245 = CC_DESIGN_DATE_AND_TIME_ASSIGNMENT ( #113, #221, ( #77 ) ) ;
#246 = APPLICATION_PROTOCOL_DEFINITION ( 'international standard', 'config_control_design', 1994, #59 ) ;
#247 = DIRECTION ( 'NONE',  ( 0.000000000000000000, 0.000000000000000000, 1.000000000000000000 ) ) ;
#248 = VERTEX_POINT ( 'NONE', #18 ) ;
#249 = AXIS2_PLACEMENT_3D ( 'NONE', #240, #180, #201 ) ;
#250 = DIRECTION ( 'NONE',  ( 1.000000000000000000, 0.000000000000000000, 0.000000000000000000 ) ) ;
#251 = DIRECTION ( 'NONE',  ( 1.000000000000000000, 0.000000000000000000, 0.000000000000000000 ) ) ;
#252 = CARTESIAN_POINT ( 'NONE',  ( -7.000000000000000000, 0.000000000000000000, 7.000000000000000000 ) ) ;
#253 = DIRECTION ( 'NONE',  ( 0.000000000000000000, 0.000000000000000000, 1.000000000000000000 ) ) ;
#254 = CC_DESIGN_APPROVAL ( #196, ( #82 ) ) ;
#255 =( LENGTH_UNIT ( ) NAMED_UNIT ( * ) SI_UNIT ( .MILLI., .METRE. ) );
ENDSEC;
END-ISO-10303-21;
