ISO-10303-21;
HEADER;
FILE_DESCRIPTION (( 'STEP AP203' ),
    '1' );
FILE_NAME ('128d.STEP',
    '2022-07-07T12:35:21',
    ( '' ),
    ( '' ),
    'SwSTEP 2.0',
    'SolidWorks 2019',
    '' );
FILE_SCHEMA (( 'CONFIG_CONTROL_DESIGN' ));
ENDSEC;

DATA;
#1 = DATE_AND_TIME ( #257, #241 ) ;
#2 = ORIENTED_EDGE ( 'NONE', *, *, #6, .F. ) ;
#3 = ADVANCED_BREP_SHAPE_REPRESENTATION ( '128d', ( #242, #284 ), #11 ) ;
#4 = PERSON_AND_ORGANIZATION ( #186, #72 ) ;
#5 = ORIENTED_EDGE ( 'NONE', *, *, #287, .F. ) ;
#6 = EDGE_CURVE ( 'NONE', #91, #261, #68, .T. ) ;
#7 = ORIENTED_EDGE ( 'NONE', *, *, #52, .T. ) ;
#8 = DIRECTION ( 'NONE',  ( 0.000000000000000000, 0.000000000000000000, 1.000000000000000000 ) ) ;
#9 = CIRCLE ( 'NONE', #222, 6.000000000000000888 ) ;
#10 = VERTEX_POINT ( 'NONE', #58 ) ;
#11 =( GEOMETRIC_REPRESENTATION_CONTEXT ( 3 ) GLOBAL_UNCERTAINTY_ASSIGNED_CONTEXT ( ( #55 ) ) GLOBAL_UNIT_ASSIGNED_CONTEXT ( ( #114, #165, #193 ) ) REPRESENTATION_CONTEXT ( 'NONE', 'WORKASPACE' ) );
#12 = EDGE_CURVE ( 'NONE', #47, #286, #144, .T. ) ;
#13 = ORIENTED_EDGE ( 'NONE', *, *, #50, .F. ) ;
#14 = DIRECTION ( 'NONE',  ( 0.000000000000000000, 0.000000000000000000, 1.000000000000000000 ) ) ;
#15 = AXIS2_PLACEMENT_3D ( 'NONE', #178, #80, #147 ) ;
#16 = DIRECTION ( 'NONE',  ( -0.000000000000000000, -0.000000000000000000, -1.000000000000000000 ) ) ;
#17 = DIRECTION ( 'NONE',  ( -0.000000000000000000, -0.000000000000000000, -1.000000000000000000 ) ) ;
#18 = ADVANCED_FACE ( 'NONE', ( #81 ), #276, .F. ) ;
#19 = DIRECTION ( 'NONE',  ( -0.000000000000000000, -0.000000000000000000, -1.000000000000000000 ) ) ;
#20 = DIRECTION ( 'NONE',  ( 1.000000000000000000, 0.000000000000000000, 0.000000000000000000 ) ) ;
#21 = EDGE_LOOP ( 'NONE', ( #44, #67 ) ) ;
#22 = CARTESIAN_POINT ( 'NONE',  ( 6.000000000000000888, 7.347880794884120722E-16, 5.000000000000000000 ) ) ;
#23 = LOCAL_TIME ( 14, 35, 21.00000000000000000, #307 ) ;
#24 = CC_DESIGN_DATE_AND_TIME_ASSIGNMENT ( #259, #27, ( #258 ) ) ;
#25 = PERSON_AND_ORGANIZATION_ROLE ( 'creator' ) ;
#26 = ADVANCED_FACE ( 'NONE', ( #226, #268 ), #221, .T. ) ;
#27 = DATE_TIME_ROLE ( 'creation_date' ) ;
#28 = VECTOR ( 'NONE', #19, 1000.000000000000000 ) ;
#29 = DATE_AND_TIME ( #75, #279 ) ;
#30 = ORIENTED_EDGE ( 'NONE', *, *, #33, .T. ) ;
#31 = DIRECTION ( 'NONE',  ( 1.000000000000000000, 0.000000000000000000, 0.000000000000000000 ) ) ;
#32 = APPROVAL_ROLE ( '' ) ;
#33 = EDGE_CURVE ( 'NONE', #10, #138, #78, .T. ) ;
#34 = ORIENTED_EDGE ( 'NONE', *, *, #148, .F. ) ;
#35 = AXIS2_PLACEMENT_3D ( 'NONE', #188, #253, #110 ) ;
#36 = APPROVAL_PERSON_ORGANIZATION ( #96, #99, #120 ) ;
#37 = CARTESIAN_POINT ( 'NONE',  ( 0.000000000000000000, 0.000000000000000000, 5.199999999999982414 ) ) ;
#38 = ORIENTED_EDGE ( 'NONE', *, *, #157, .F. ) ;
#39 = DIRECTION ( 'NONE',  ( 0.000000000000000000, 0.000000000000000000, 1.000000000000000000 ) ) ;
#40 = ORIENTED_EDGE ( 'NONE', *, *, #41, .F. ) ;
#41 = EDGE_CURVE ( 'NONE', #286, #47, #9, .T. ) ;
#42 = DIRECTION ( 'NONE',  ( -1.000000000000000000, 1.224646799147353454E-16, 0.000000000000000000 ) ) ;
#43 = FACE_OUTER_BOUND ( 'NONE', #79, .T. ) ;
#44 = ORIENTED_EDGE ( 'NONE', *, *, #12, .T. ) ;
#45 = CARTESIAN_POINT ( 'NONE',  ( 3.750000000000000000, 4.592425496802573972E-16, 5.199999999999982414 ) ) ;
#46 = DIRECTION ( 'NONE',  ( -0.000000000000000000, -0.000000000000000000, -1.000000000000000000 ) ) ;
#47 = VERTEX_POINT ( 'NONE', #177 ) ;
#48 = AXIS2_PLACEMENT_3D ( 'NONE', #63, #152, #132 ) ;
#49 = DATE_AND_TIME ( #143, #23 ) ;
#50 = EDGE_CURVE ( 'NONE', #286, #261, #295, .T. ) ;
#51 = APPROVAL_STATUS ( 'not_yet_approved' ) ;
#52 = EDGE_CURVE ( 'NONE', #187, #197, #166, .T. ) ;
#53 = CIRCLE ( 'NONE', #246, 0.1999999999999996503 ) ;
#54 = PERSON_AND_ORGANIZATION_ROLE ( 'design_owner' ) ;
#55 = UNCERTAINTY_MEASURE_WITH_UNIT (LENGTH_MEASURE( 1.000000000000000082E-05 ), #114, 'distance_accuracy_value', 'NONE');
#56 = AXIS2_PLACEMENT_3D ( 'NONE', #146, #291, #247 ) ;
#57 = PLANE ( 'NONE',  #56 ) ;
#58 = CARTESIAN_POINT ( 'NONE',  ( 3.750000000000000000, 4.592425496802573972E-16, 405.0000000000000000 ) ) ;
#59 = CARTESIAN_POINT ( 'NONE',  ( 6.000000000000000888, 7.347880794884120722E-16, 5.000000000000000000 ) ) ;
#60 = EDGE_CURVE ( 'NONE', #243, #197, #74, .T. ) ;
#61 = CARTESIAN_POINT ( 'NONE',  ( 0.000000000000000000, 0.000000000000000000, 5.000000000000000000 ) ) ;
#62 = SECURITY_CLASSIFICATION ( '', '', #260 ) ;
#63 = CARTESIAN_POINT ( 'NONE',  ( 3.949999999999999734, 0.000000000000000000, 5.199999999999982414 ) ) ;
#64 = FACE_OUTER_BOUND ( 'NONE', #104, .T. ) ;
#65 = DIRECTION ( 'NONE',  ( 0.000000000000000000, 0.000000000000000000, 1.000000000000000000 ) ) ;
#66 = CARTESIAN_POINT ( 'NONE',  ( 6.000000000000000888, 7.347880794884120722E-16, 0.000000000000000000 ) ) ;
#67 = ORIENTED_EDGE ( 'NONE', *, *, #41, .T. ) ;
#68 = CIRCLE ( 'NONE', #102, 6.000000000000000888 ) ;
#69 = DIRECTION ( 'NONE',  ( 1.000000000000000000, 0.000000000000000000, 0.000000000000000000 ) ) ;
#70 = AXIS2_PLACEMENT_3D ( 'NONE', #154, #65, #230 ) ;
#71 = SHAPE_DEFINITION_REPRESENTATION ( #301, #3 ) ;
#72 = ORGANIZATION ( 'NEURÈENÝ', 'NEURÈENÝ', '' ) ;
#73 = APPLICATION_PROTOCOL_DEFINITION ( 'international standard', 'config_control_design', 1994, #113 ) ;
#74 = CIRCLE ( 'NONE', #48, 0.1999999999999996503 ) ;
#75 = CALENDAR_DATE ( 2022, 7, 7 ) ;
#76 = ORIENTED_EDGE ( 'NONE', *, *, #115, .F. ) ;
#77 = EDGE_LOOP ( 'NONE', ( #13, #128, #198, #266 ) ) ;
#78 = CIRCLE ( 'NONE', #139, 3.750000000000000000 ) ;
#79 = EDGE_LOOP ( 'NONE', ( #125, #30 ) ) ;
#80 = DIRECTION ( 'NONE',  ( 0.000000000000000000, 0.000000000000000000, 1.000000000000000000 ) ) ;
#81 = FACE_OUTER_BOUND ( 'NONE', #249, .T. ) ;
#82 = ORIENTED_EDGE ( 'NONE', *, *, #60, .T. ) ;
#83 = CC_DESIGN_PERSON_AND_ORGANIZATION_ASSIGNMENT ( #238, #121, ( #62 ) ) ;
#84 = AXIS2_PLACEMENT_3D ( 'NONE', #133, #185, #156 ) ;
#85 = FACE_OUTER_BOUND ( 'NONE', #77, .T. ) ;
#86 = DIRECTION ( 'NONE',  ( -0.000000000000000000, -0.000000000000000000, -1.000000000000000000 ) ) ;
#87 = CYLINDRICAL_SURFACE ( 'NONE', #84, 3.750000000000000000 ) ;
#88 = CC_DESIGN_PERSON_AND_ORGANIZATION_ASSIGNMENT ( #117, #116, ( #129 ) ) ;
#89 = LOCAL_TIME ( 14, 35, 21.00000000000000000, #303 ) ;
#90 = FACE_OUTER_BOUND ( 'NONE', #283, .T. ) ;
#91 = VERTEX_POINT ( 'NONE', #173 ) ;
#92 = ADVANCED_FACE ( 'NONE', ( #262 ), #57, .F. ) ;
#93 = CYLINDRICAL_SURFACE ( 'NONE', #190, 6.000000000000000888 ) ;
#94 = CALENDAR_DATE ( 2022, 7, 7 ) ;
#95 = APPROVAL ( #196, 'NEURÈENÝ' ) ;
#96 = PERSON_AND_ORGANIZATION ( #186, #72 ) ;
#97 = AXIS2_PLACEMENT_3D ( 'NONE', #228, #180, #274 ) ;
#98 = ORIENTED_EDGE ( 'NONE', *, *, #60, .F. ) ;
#99 = APPROVAL ( #51, 'NEURÈENÝ' ) ;
#100 = EDGE_CURVE ( 'NONE', #231, #243, #127, .T. ) ;
#101 = ORIENTED_EDGE ( 'NONE', *, *, #264, .F. ) ;
#102 = AXIS2_PLACEMENT_3D ( 'NONE', #205, #223, #123 ) ;
#103 = DIRECTION ( 'NONE',  ( 1.000000000000000000, 0.000000000000000000, 0.000000000000000000 ) ) ;
#104 = EDGE_LOOP ( 'NONE', ( #38, #101, #219, #202 ) ) ;
#105 = CC_DESIGN_APPROVAL ( #99, ( #129 ) ) ;
#106 = CARTESIAN_POINT ( 'NONE',  ( 0.000000000000000000, 0.000000000000000000, 5.000000000000000000 ) ) ;
#107 = ORIENTED_EDGE ( 'NONE', *, *, #52, .F. ) ;
#108 = AXIS2_PLACEMENT_3D ( 'NONE', #158, #109, #137 ) ;
#109 = DIRECTION ( 'NONE',  ( 0.000000000000000000, 0.000000000000000000, 1.000000000000000000 ) ) ;
#110 = DIRECTION ( 'NONE',  ( 1.000000000000000000, 0.000000000000000000, 0.000000000000000000 ) ) ;
#111 = LINE ( 'NONE', #251, #206 ) ;
#112 = DIRECTION ( 'NONE',  ( 0.000000000000000000, 0.000000000000000000, 1.000000000000000000 ) ) ;
#113 = APPLICATION_CONTEXT ( 'configuration controlled 3d designs of mechanical parts and assemblies' ) ;
#114 =( LENGTH_UNIT ( ) NAMED_UNIT ( * ) SI_UNIT ( .MILLI., .METRE. ) );
#115 = EDGE_CURVE ( 'NONE', #47, #91, #199, .T. ) ;
#116 = PERSON_AND_ORGANIZATION_ROLE ( 'design_supplier' ) ;
#117 = PERSON_AND_ORGANIZATION ( #186, #72 ) ;
#118 = APPROVAL_DATE_TIME ( #29, #99 ) ;
#119 = EDGE_LOOP ( 'NONE', ( #2, #5 ) ) ;
#120 = APPROVAL_ROLE ( '' ) ;
#121 = PERSON_AND_ORGANIZATION_ROLE ( 'classification_officer' ) ;
#122 = ORIENTED_EDGE ( 'NONE', *, *, #159, .T. ) ;
#123 = DIRECTION ( 'NONE',  ( 1.000000000000000000, 0.000000000000000000, 0.000000000000000000 ) ) ;
#124 = PRODUCT ( '128d', '128d', '', ( #194 ) ) ;
#125 = ORIENTED_EDGE ( 'NONE', *, *, #264, .T. ) ;
#126 = VECTOR ( 'NONE', #294, 1000.000000000000000 ) ;
#127 = CIRCLE ( 'NONE', #306, 3.750000000000000000 ) ;
#128 = ORIENTED_EDGE ( 'NONE', *, *, #12, .F. ) ;
#129 = PRODUCT_DEFINITION_FORMATION_WITH_SPECIFIED_SOURCE ( 'LIBOVOLNÝ', '', #124, .NOT_KNOWN. ) ;
#130 = DIRECTION ( 'NONE',  ( 1.000000000000000000, 0.000000000000000000, 0.000000000000000000 ) ) ;
#131 = APPLICATION_CONTEXT ( 'configuration controlled 3d designs of mechanical parts and assemblies' ) ;
#132 = DIRECTION ( 'NONE',  ( 0.000000000000000000, 0.000000000000000000, -1.000000000000000000 ) ) ;
#133 = CARTESIAN_POINT ( 'NONE',  ( 0.000000000000000000, 0.000000000000000000, 405.0000000000000000 ) ) ;
#134 = AXIS2_PLACEMENT_3D ( 'NONE', #232, #112, #69 ) ;
#135 = CARTESIAN_POINT ( 'NONE',  ( -3.750000000000000000, 0.000000000000000000, 5.199999999999982414 ) ) ;
#136 = ORIENTED_EDGE ( 'NONE', *, *, #159, .F. ) ;
#137 = DIRECTION ( 'NONE',  ( 1.000000000000000000, 0.000000000000000000, 0.000000000000000000 ) ) ;
#138 = VERTEX_POINT ( 'NONE', #300 ) ;
#139 = AXIS2_PLACEMENT_3D ( 'NONE', #250, #14, #204 ) ;
#140 = CARTESIAN_POINT ( 'NONE',  ( 0.000000000000000000, 0.000000000000000000, 0.000000000000000000 ) ) ;
#141 = APPROVAL_DATE_TIME ( #49, #290 ) ;
#142 = EDGE_LOOP ( 'NONE', ( #40, #256, #267, #76 ) ) ;
#143 = CALENDAR_DATE ( 2022, 7, 7 ) ;
#144 = CIRCLE ( 'NONE', #298, 6.000000000000000888 ) ;
#145 = ORIENTED_EDGE ( 'NONE', *, *, #33, .F. ) ;
#146 = CARTESIAN_POINT ( 'NONE',  ( 0.000000000000000000, 0.000000000000000000, 0.000000000000000000 ) ) ;
#147 = DIRECTION ( 'NONE',  ( 1.000000000000000000, 0.000000000000000000, 0.000000000000000000 ) ) ;
#148 = EDGE_CURVE ( 'NONE', #138, #231, #296, .T. ) ;
#149 = ORIENTED_EDGE ( 'NONE', *, *, #212, .T. ) ;
#150 = DIRECTION ( 'NONE',  ( 1.000000000000000000, 0.000000000000000000, -0.000000000000000000 ) ) ;
#151 = APPROVAL_PERSON_ORGANIZATION ( #170, #95, #285 ) ;
#152 = DIRECTION ( 'NONE',  ( 0.000000000000000000, -1.000000000000000000, 0.000000000000000000 ) ) ;
#153 = DIRECTION ( 'NONE',  ( 0.000000000000000000, 0.000000000000000000, 1.000000000000000000 ) ) ;
#154 = CARTESIAN_POINT ( 'NONE',  ( 0.000000000000000000, 0.000000000000000000, 405.0000000000000000 ) ) ;
#155 = AXIS2_PLACEMENT_3D ( 'NONE', #252, #46, #236 ) ;
#156 = DIRECTION ( 'NONE',  ( -1.000000000000000000, 0.000000000000000000, 0.000000000000000000 ) ) ;
#157 = EDGE_CURVE ( 'NONE', #10, #243, #111, .T. ) ;
#158 = CARTESIAN_POINT ( 'NONE',  ( 0.000000000000000000, 0.000000000000000000, 405.0000000000000000 ) ) ;
#159 = EDGE_CURVE ( 'NONE', #243, #231, #191, .T. ) ;
#160 = CC_DESIGN_PERSON_AND_ORGANIZATION_ASSIGNMENT ( #168, #282, ( #258 ) ) ;
#161 = DIRECTION ( 'NONE',  ( -1.000000000000000000, 0.000000000000000000, 0.000000000000000000 ) ) ;
#162 = VECTOR ( 'NONE', #208, 1000.000000000000000 ) ;
#163 = CIRCLE ( 'NONE', #134, 6.000000000000000888 ) ;
#164 = PERSON_AND_ORGANIZATION ( #186, #72 ) ;
#165 =( NAMED_UNIT ( * ) PLANE_ANGLE_UNIT ( ) SI_UNIT ( $, .RADIAN. ) );
#166 = CIRCLE ( 'NONE', #209, 3.949999999999999734 ) ;
#167 = APPROVAL_STATUS ( 'not_yet_approved' ) ;
#168 = PERSON_AND_ORGANIZATION ( #186, #72 ) ;
#169 = ORIENTED_EDGE ( 'NONE', *, *, #239, .F. ) ;
#170 = PERSON_AND_ORGANIZATION ( #186, #72 ) ;
#171 = ORIENTED_EDGE ( 'NONE', *, *, #157, .T. ) ;
#172 = ADVANCED_FACE ( 'NONE', ( #43 ), #181, .T. ) ;
#173 = CARTESIAN_POINT ( 'NONE',  ( -6.000000000000000888, 0.000000000000000000, 0.000000000000000000 ) ) ;
#174 = EDGE_LOOP ( 'NONE', ( #224, #136, #82, #107 ) ) ;
#175 = AXIS2_PLACEMENT_3D ( 'NONE', #213, #86, #254 ) ;
#176 = ADVANCED_FACE ( 'NONE', ( #273 ), #183, .F. ) ;
#177 = CARTESIAN_POINT ( 'NONE',  ( -6.000000000000000888, 0.000000000000000000, 5.000000000000000000 ) ) ;
#178 = CARTESIAN_POINT ( 'NONE',  ( 0.000000000000000000, 0.000000000000000000, 5.199999999999982414 ) ) ;
#179 = CARTESIAN_POINT ( 'NONE',  ( 0.000000000000000000, 0.000000000000000000, 5.000000000000000000 ) ) ;
#180 = DIRECTION ( 'NONE',  ( -0.000000000000000000, -0.000000000000000000, -1.000000000000000000 ) ) ;
#181 = PLANE ( 'NONE',  #70 ) ;
#182 = CARTESIAN_POINT ( 'NONE',  ( 3.949999999999999734, 0.000000000000000000, 4.999999999999991118 ) ) ;
#183 = TOROIDAL_SURFACE ( 'NONE', #201, 3.949999999999999734, 0.2000000000000000111 ) ;
#184 = CC_DESIGN_APPROVAL ( #95, ( #62 ) ) ;
#185 = DIRECTION ( 'NONE',  ( -0.000000000000000000, -0.000000000000000000, -1.000000000000000000 ) ) ;
#186 = PERSON ( 'NEURÈENÝ', 'NEURÈENÝ', 'NEURÈENÝ', ('NEURÈENÝ'), ('NEURÈENÝ'), ('NEURÈENÝ') ) ;
#187 = VERTEX_POINT ( 'NONE', #229 ) ;
#188 = CARTESIAN_POINT ( 'NONE',  ( 0.000000000000000000, 0.000000000000000000, 5.199999999999982414 ) ) ;
#189 = DATE_AND_TIME ( #94, #89 ) ;
#190 = AXIS2_PLACEMENT_3D ( 'NONE', #207, #275, #161 ) ;
#191 = CIRCLE ( 'NONE', #35, 3.750000000000000000 ) ;
#192 = COORDINATED_UNIVERSAL_TIME_OFFSET ( 1, 0, .AHEAD. ) ;
#193 =( NAMED_UNIT ( * ) SI_UNIT ( $, .STERADIAN. ) SOLID_ANGLE_UNIT ( ) );
#194 = MECHANICAL_CONTEXT ( 'NONE', #113, 'mechanical' ) ;
#195 = CC_DESIGN_APPROVAL ( #290, ( #258 ) ) ;
#196 = APPROVAL_STATUS ( 'not_yet_approved' ) ;
#197 = VERTEX_POINT ( 'NONE', #182 ) ;
#198 = ORIENTED_EDGE ( 'NONE', *, *, #115, .T. ) ;
#199 = LINE ( 'NONE', #248, #28 ) ;
#200 = DESIGN_CONTEXT ( 'detailed design', #131, 'design' ) ;
#201 = AXIS2_PLACEMENT_3D ( 'NONE', #297, #153, #20 ) ;
#202 = ORIENTED_EDGE ( 'NONE', *, *, #100, .T. ) ;
#203 = DIRECTION ( 'NONE',  ( 0.000000000000000000, 0.000000000000000000, 1.000000000000000000 ) ) ;
#204 = DIRECTION ( 'NONE',  ( 1.000000000000000000, 0.000000000000000000, 0.000000000000000000 ) ) ;
#205 = CARTESIAN_POINT ( 'NONE',  ( 0.000000000000000000, 0.000000000000000000, 0.000000000000000000 ) ) ;
#206 = VECTOR ( 'NONE', #17, 1000.000000000000000 ) ;
#207 = CARTESIAN_POINT ( 'NONE',  ( 0.000000000000000000, 0.000000000000000000, 5.000000000000000000 ) ) ;
#208 = DIRECTION ( 'NONE',  ( -0.000000000000000000, -0.000000000000000000, -1.000000000000000000 ) ) ;
#209 = AXIS2_PLACEMENT_3D ( 'NONE', #179, #16, #270 ) ;
#210 = CARTESIAN_POINT ( 'NONE',  ( -3.949999999999999734, 4.837354856632044071E-16, 5.199999999999982414 ) ) ;
#211 = FACE_OUTER_BOUND ( 'NONE', #142, .T. ) ;
#212 = EDGE_CURVE ( 'NONE', #231, #187, #53, .T. ) ;
#213 = CARTESIAN_POINT ( 'NONE',  ( 0.000000000000000000, 0.000000000000000000, 5.000000000000000000 ) ) ;
#214 = ADVANCED_FACE ( 'NONE', ( #85 ), #271, .T. ) ;
#215 = LOCAL_TIME ( 14, 35, 21.00000000000000000, #192 ) ;
#216 = COORDINATED_UNIVERSAL_TIME_OFFSET ( 1, 0, .AHEAD. ) ;
#217 = ORIENTED_EDGE ( 'NONE', *, *, #100, .F. ) ;
#218 = APPLICATION_PROTOCOL_DEFINITION ( 'international standard', 'config_control_design', 1994, #131 ) ;
#219 = ORIENTED_EDGE ( 'NONE', *, *, #148, .T. ) ;
#220 = CIRCLE ( 'NONE', #97, 3.949999999999999734 ) ;
#221 = PLANE ( 'NONE',  #227 ) ;
#222 = AXIS2_PLACEMENT_3D ( 'NONE', #225, #39, #130 ) ;
#223 = DIRECTION ( 'NONE',  ( 0.000000000000000000, 0.000000000000000000, 1.000000000000000000 ) ) ;
#224 = ORIENTED_EDGE ( 'NONE', *, *, #212, .F. ) ;
#225 = CARTESIAN_POINT ( 'NONE',  ( 0.000000000000000000, 0.000000000000000000, 5.000000000000000000 ) ) ;
#226 = FACE_BOUND ( 'NONE', #245, .T. ) ;
#227 = AXIS2_PLACEMENT_3D ( 'NONE', #61, #292, #150 ) ;
#228 = CARTESIAN_POINT ( 'NONE',  ( 0.000000000000000000, 0.000000000000000000, 5.000000000000000000 ) ) ;
#229 = CARTESIAN_POINT ( 'NONE',  ( -3.949999999999999734, 4.837354856632044071E-16, 4.999999999999991118 ) ) ;
#230 = DIRECTION ( 'NONE',  ( 1.000000000000000000, 0.000000000000000000, -0.000000000000000000 ) ) ;
#231 = VERTEX_POINT ( 'NONE', #135 ) ;
#232 = CARTESIAN_POINT ( 'NONE',  ( 0.000000000000000000, 0.000000000000000000, 0.000000000000000000 ) ) ;
#233 = CC_DESIGN_SECURITY_CLASSIFICATION ( #62, ( #129 ) ) ;
#234 = CC_DESIGN_PERSON_AND_ORGANIZATION_ASSIGNMENT ( #164, #54, ( #124 ) ) ;
#235 = ADVANCED_FACE ( 'NONE', ( #90 ), #87, .T. ) ;
#236 = DIRECTION ( 'NONE',  ( -1.000000000000000000, 0.000000000000000000, 0.000000000000000000 ) ) ;
#237 = ORIENTED_EDGE ( 'NONE', *, *, #239, .T. ) ;
#238 = PERSON_AND_ORGANIZATION ( #186, #72 ) ;
#239 = EDGE_CURVE ( 'NONE', #197, #187, #220, .T. ) ;
#240 = PERSON_AND_ORGANIZATION ( #186, #72 ) ;
#241 = LOCAL_TIME ( 14, 35, 21.00000000000000000, #216 ) ;
#242 = MANIFOLD_SOLID_BREP ( 'Zaoblit1', #304 ) ;
#243 = VERTEX_POINT ( 'NONE', #45 ) ;
#244 = COORDINATED_UNIVERSAL_TIME_OFFSET ( 1, 0, .AHEAD. ) ;
#245 = EDGE_LOOP ( 'NONE', ( #237, #7 ) ) ;
#246 = AXIS2_PLACEMENT_3D ( 'NONE', #210, #272, #42 ) ;
#247 = DIRECTION ( 'NONE',  ( 1.000000000000000000, 0.000000000000000000, -0.000000000000000000 ) ) ;
#248 = CARTESIAN_POINT ( 'NONE',  ( -6.000000000000000888, 0.000000000000000000, 5.000000000000000000 ) ) ;
#249 = EDGE_LOOP ( 'NONE', ( #217, #149, #169, #98 ) ) ;
#250 = CARTESIAN_POINT ( 'NONE',  ( 0.000000000000000000, 0.000000000000000000, 405.0000000000000000 ) ) ;
#251 = CARTESIAN_POINT ( 'NONE',  ( 3.750000000000000000, 4.592425496802573972E-16, 405.0000000000000000 ) ) ;
#252 = CARTESIAN_POINT ( 'NONE',  ( 0.000000000000000000, 0.000000000000000000, 405.0000000000000000 ) ) ;
#253 = DIRECTION ( 'NONE',  ( 0.000000000000000000, 0.000000000000000000, 1.000000000000000000 ) ) ;
#254 = DIRECTION ( 'NONE',  ( -1.000000000000000000, 0.000000000000000000, 0.000000000000000000 ) ) ;
#255 = CYLINDRICAL_SURFACE ( 'NONE', #155, 3.750000000000000000 ) ;
#256 = ORIENTED_EDGE ( 'NONE', *, *, #50, .T. ) ;
#257 = CALENDAR_DATE ( 2022, 7, 7 ) ;
#258 = PRODUCT_DEFINITION ( 'NEZNÁMÝ', '', #129, #200 ) ;
#259 = DATE_AND_TIME ( #305, #215 ) ;
#260 = SECURITY_CLASSIFICATION_LEVEL ( 'unclassified' ) ;
#261 = VERTEX_POINT ( 'NONE', #66 ) ;
#262 = FACE_OUTER_BOUND ( 'NONE', #119, .T. ) ;
#263 = APPROVAL_PERSON_ORGANIZATION ( #4, #290, #32 ) ;
#264 = EDGE_CURVE ( 'NONE', #138, #10, #265, .T. ) ;
#265 = CIRCLE ( 'NONE', #108, 3.750000000000000000 ) ;
#266 = ORIENTED_EDGE ( 'NONE', *, *, #6, .T. ) ;
#267 = ORIENTED_EDGE ( 'NONE', *, *, #287, .T. ) ;
#268 = FACE_OUTER_BOUND ( 'NONE', #21, .T. ) ;
#269 = CC_DESIGN_PERSON_AND_ORGANIZATION_ASSIGNMENT ( #240, #25, ( #129 ) ) ;
#270 = DIRECTION ( 'NONE',  ( 1.000000000000000000, 0.000000000000000000, 0.000000000000000000 ) ) ;
#271 = CYLINDRICAL_SURFACE ( 'NONE', #175, 6.000000000000000888 ) ;
#272 = DIRECTION ( 'NONE',  ( 1.224646799147353207E-16, 1.000000000000000000, -0.000000000000000000 ) ) ;
#273 = FACE_OUTER_BOUND ( 'NONE', #174, .T. ) ;
#274 = DIRECTION ( 'NONE',  ( 1.000000000000000000, 0.000000000000000000, 0.000000000000000000 ) ) ;
#275 = DIRECTION ( 'NONE',  ( -0.000000000000000000, -0.000000000000000000, -1.000000000000000000 ) ) ;
#276 = TOROIDAL_SURFACE ( 'NONE', #15, 3.949999999999999734, 0.2000000000000000111 ) ;
#277 = CC_DESIGN_DATE_AND_TIME_ASSIGNMENT ( #1, #280, ( #62 ) ) ;
#278 = APPROVAL_DATE_TIME ( #189, #95 ) ;
#279 = LOCAL_TIME ( 14, 35, 21.00000000000000000, #244 ) ;
#280 = DATE_TIME_ROLE ( 'classification_date' ) ;
#281 = DIRECTION ( 'NONE',  ( 0.000000000000000000, 0.000000000000000000, 1.000000000000000000 ) ) ;
#282 = PERSON_AND_ORGANIZATION_ROLE ( 'creator' ) ;
#283 = EDGE_LOOP ( 'NONE', ( #145, #171, #122, #34 ) ) ;
#284 = AXIS2_PLACEMENT_3D ( 'NONE', #140, #281, #31 ) ;
#285 = APPROVAL_ROLE ( '' ) ;
#286 = VERTEX_POINT ( 'NONE', #22 ) ;
#287 = EDGE_CURVE ( 'NONE', #261, #91, #163, .T. ) ;
#288 = ADVANCED_FACE ( 'NONE', ( #211 ), #93, .T. ) ;
#289 = PRODUCT_RELATED_PRODUCT_CATEGORY ( 'detail', '', ( #124 ) ) ;
#290 = APPROVAL ( #167, 'NEURÈENÝ' ) ;
#291 = DIRECTION ( 'NONE',  ( 0.000000000000000000, 0.000000000000000000, 1.000000000000000000 ) ) ;
#292 = DIRECTION ( 'NONE',  ( 0.000000000000000000, 0.000000000000000000, 1.000000000000000000 ) ) ;
#293 = DIRECTION ( 'NONE',  ( 1.000000000000000000, 0.000000000000000000, 0.000000000000000000 ) ) ;
#294 = DIRECTION ( 'NONE',  ( -0.000000000000000000, -0.000000000000000000, -1.000000000000000000 ) ) ;
#295 = LINE ( 'NONE', #59, #126 ) ;
#296 = LINE ( 'NONE', #302, #162 ) ;
#297 = CARTESIAN_POINT ( 'NONE',  ( 0.000000000000000000, 0.000000000000000000, 5.199999999999982414 ) ) ;
#298 = AXIS2_PLACEMENT_3D ( 'NONE', #106, #203, #293 ) ;
#299 = ADVANCED_FACE ( 'NONE', ( #64 ), #255, .T. ) ;
#300 = CARTESIAN_POINT ( 'NONE',  ( -3.750000000000000000, 0.000000000000000000, 405.0000000000000000 ) ) ;
#301 = PRODUCT_DEFINITION_SHAPE ( 'NONE', 'NONE',  #258 ) ;
#302 = CARTESIAN_POINT ( 'NONE',  ( -3.750000000000000000, 0.000000000000000000, 405.0000000000000000 ) ) ;
#303 = COORDINATED_UNIVERSAL_TIME_OFFSET ( 1, 0, .AHEAD. ) ;
#304 = CLOSED_SHELL ( 'NONE', ( #18, #235, #288, #214, #26, #92, #299, #172, #176 ) ) ;
#305 = CALENDAR_DATE ( 2022, 7, 7 ) ;
#306 = AXIS2_PLACEMENT_3D ( 'NONE', #37, #8, #103 ) ;
#307 = COORDINATED_UNIVERSAL_TIME_OFFSET ( 1, 0, .AHEAD. ) ;
ENDSEC;
END-ISO-10303-21;
