ISO-10303-21;
HEADER;
FILE_DESCRIPTION (( 'STEP AP203' ),
    '1' );
FILE_NAME ('a951.STEP',
    '2023-02-12T12:11:43',
    ( '' ),
    ( '' ),
    'SwSTEP 2.0',
    'SolidWorks 2019',
    '' );
FILE_SCHEMA (( 'CONFIG_CONTROL_DESIGN' ));
ENDSEC;

DATA;
#1 = SECURITY_CLASSIFICATION ( '', '', #28 ) ;
#2 = CYLINDRICAL_SURFACE ( 'NONE', #228, 3.000000000000000444 ) ;
#3 = AXIS2_PLACEMENT_3D ( 'NONE', #5, #197, #73 ) ;
#4 = LINE ( 'NONE', #39, #83 ) ;
#5 = CARTESIAN_POINT ( 'NONE',  ( 0.000000000000000000, 0.000000000000000000, 0.000000000000000000 ) ) ;
#6 = PLANE ( 'NONE',  #23 ) ;
#7 = DIRECTION ( 'NONE',  ( 1.000000000000000000, 0.000000000000000000, 0.000000000000000000 ) ) ;
#8 = LINE ( 'NONE', #42, #71 ) ;
#9 = PRODUCT_DEFINITION_SHAPE ( 'NONE', 'NONE',  #148 ) ;
#10 = CARTESIAN_POINT ( 'NONE',  ( -1.600000000000000089, 0.000000000000000000, 315.0000000000000000 ) ) ;
#11 = DATE_AND_TIME ( #217, #149 ) ;
#12 = CIRCLE ( 'NONE', #242, 1.600000000000000089 ) ;
#13 = DATE_AND_TIME ( #181, #123 ) ;
#14 = ORIENTED_EDGE ( 'NONE', *, *, #161, .F. ) ;
#15 = CC_DESIGN_PERSON_AND_ORGANIZATION_ASSIGNMENT ( #179, #85, ( #45 ) ) ;
#16 = CLOSED_SHELL ( 'NONE', ( #212, #118, #214, #74, #109, #35, #180 ) ) ;
#17 = VERTEX_POINT ( 'NONE', #19 ) ;
#18 = CIRCLE ( 'NONE', #224, 1.600000000000000089 ) ;
#19 = CARTESIAN_POINT ( 'NONE',  ( -1.600000000000000089, 0.000000000000000000, 3.000000000000000000 ) ) ;
#20 = FACE_OUTER_BOUND ( 'NONE', #68, .T. ) ;
#21 = FACE_OUTER_BOUND ( 'NONE', #34, .T. ) ;
#22 = DATE_AND_TIME ( #156, #100 ) ;
#23 = AXIS2_PLACEMENT_3D ( 'NONE', #186, #92, #113 ) ;
#24 = LINE ( 'NONE', #120, #195 ) ;
#25 = DIRECTION ( 'NONE',  ( 0.000000000000000000, 0.000000000000000000, 1.000000000000000000 ) ) ;
#26 = APPLICATION_CONTEXT ( 'configuration controlled 3d designs of mechanical parts and assemblies' ) ;
#27 = CC_DESIGN_APPROVAL ( #61, ( #1 ) ) ;
#28 = SECURITY_CLASSIFICATION_LEVEL ( 'unclassified' ) ;
#29 = PERSON_AND_ORGANIZATION ( #200, #213 ) ;
#30 = EDGE_CURVE ( 'NONE', #51, #53, #110, .T. ) ;
#31 = COORDINATED_UNIVERSAL_TIME_OFFSET ( 1, 0, .AHEAD. ) ;
#32 = VERTEX_POINT ( 'NONE', #111 ) ;
#33 = ORIENTED_EDGE ( 'NONE', *, *, #125, .F. ) ;
#34 = EDGE_LOOP ( 'NONE', ( #14, #225, #162, #33 ) ) ;
#35 = ADVANCED_FACE ( 'NONE', ( #255 ), #132, .T. ) ;
#36 = ORIENTED_EDGE ( 'NONE', *, *, #220, .F. ) ;
#37 = FACE_BOUND ( 'NONE', #66, .T. ) ;
#38 = DIRECTION ( 'NONE',  ( 0.000000000000000000, 0.000000000000000000, 1.000000000000000000 ) ) ;
#39 = CARTESIAN_POINT ( 'NONE',  ( -1.600000000000000089, 0.000000000000000000, 315.0000000000000000 ) ) ;
#40 = CARTESIAN_POINT ( 'NONE',  ( 0.000000000000000000, 0.000000000000000000, 3.000000000000000000 ) ) ;
#41 =( NAMED_UNIT ( * ) SI_UNIT ( $, .STERADIAN. ) SOLID_ANGLE_UNIT ( ) );
#42 = CARTESIAN_POINT ( 'NONE',  ( 1.600000000000000089, 1.959434878635765230E-16, 315.0000000000000000 ) ) ;
#43 = APPROVAL_DATE_TIME ( #47, #141 ) ;
#44 = APPROVAL_STATUS ( 'not_yet_approved' ) ;
#45 = PRODUCT ( 'a951', 'a951', '', ( #155 ) ) ;
#46 = APPLICATION_CONTEXT ( 'configuration controlled 3d designs of mechanical parts and assemblies' ) ;
#47 = DATE_AND_TIME ( #240, #202 ) ;
#48 = CARTESIAN_POINT ( 'NONE',  ( 0.000000000000000000, 0.000000000000000000, 315.0000000000000000 ) ) ;
#49 = PERSON_AND_ORGANIZATION ( #200, #213 ) ;
#50 = PERSON_AND_ORGANIZATION ( #200, #213 ) ;
#51 = VERTEX_POINT ( 'NONE', #169 ) ;
#52 = APPROVAL_PERSON_ORGANIZATION ( #49, #61, #103 ) ;
#53 = VERTEX_POINT ( 'NONE', #116 ) ;
#54 = AXIS2_PLACEMENT_3D ( 'NONE', #94, #164, #99 ) ;
#55 = DIRECTION ( 'NONE',  ( 0.000000000000000000, 0.000000000000000000, 1.000000000000000000 ) ) ;
#56 = ORIENTED_EDGE ( 'NONE', *, *, #153, .F. ) ;
#57 = DIRECTION ( 'NONE',  ( -1.000000000000000000, 0.000000000000000000, 0.000000000000000000 ) ) ;
#58 = CIRCLE ( 'NONE', #185, 1.600000000000000089 ) ;
#59 = CARTESIAN_POINT ( 'NONE',  ( 3.000000000000000444, 3.673940397442060361E-16, 3.000000000000000000 ) ) ;
#60 = DIRECTION ( 'NONE',  ( 0.000000000000000000, 0.000000000000000000, 1.000000000000000000 ) ) ;
#61 = APPROVAL ( #67, 'NEURÈENÝ' ) ;
#62 = CARTESIAN_POINT ( 'NONE',  ( 0.000000000000000000, 0.000000000000000000, 315.0000000000000000 ) ) ;
#63 = PERSON_AND_ORGANIZATION ( #200, #213 ) ;
#64 = CC_DESIGN_APPROVAL ( #129, ( #148 ) ) ;
#65 = COORDINATED_UNIVERSAL_TIME_OFFSET ( 1, 0, .AHEAD. ) ;
#66 = EDGE_LOOP ( 'NONE', ( #204, #234 ) ) ;
#67 = APPROVAL_STATUS ( 'not_yet_approved' ) ;
#68 = EDGE_LOOP ( 'NONE', ( #106, #108, #126, #147 ) ) ;
#69 = SHAPE_DEFINITION_REPRESENTATION ( #9, #192 ) ;
#70 = DIRECTION ( 'NONE',  ( -0.000000000000000000, -0.000000000000000000, -1.000000000000000000 ) ) ;
#71 = VECTOR ( 'NONE', #114, 1000.000000000000000 ) ;
#72 = DIRECTION ( 'NONE',  ( -0.000000000000000000, -0.000000000000000000, -1.000000000000000000 ) ) ;
#73 = DIRECTION ( 'NONE',  ( 1.000000000000000000, 0.000000000000000000, 0.000000000000000000 ) ) ;
#74 = ADVANCED_FACE ( 'NONE', ( #37, #211 ), #6, .T. ) ;
#75 = DIRECTION ( 'NONE',  ( -0.000000000000000000, -0.000000000000000000, -1.000000000000000000 ) ) ;
#76 = FACE_OUTER_BOUND ( 'NONE', #128, .T. ) ;
#77 = AXIS2_PLACEMENT_3D ( 'NONE', #210, #136, #7 ) ;
#78 = DIRECTION ( 'NONE',  ( -1.000000000000000000, 0.000000000000000000, 0.000000000000000000 ) ) ;
#79 = EDGE_CURVE ( 'NONE', #17, #86, #154, .T. ) ;
#80 = CARTESIAN_POINT ( 'NONE',  ( 0.000000000000000000, 0.000000000000000000, 3.000000000000000000 ) ) ;
#81 = CC_DESIGN_SECURITY_CLASSIFICATION ( #1, ( #165 ) ) ;
#82 = DIRECTION ( 'NONE',  ( -0.000000000000000000, -0.000000000000000000, -1.000000000000000000 ) ) ;
#83 = VECTOR ( 'NONE', #150, 1000.000000000000000 ) ;
#84 = COORDINATED_UNIVERSAL_TIME_OFFSET ( 1, 0, .AHEAD. ) ;
#85 = PERSON_AND_ORGANIZATION_ROLE ( 'design_owner' ) ;
#86 = VERTEX_POINT ( 'NONE', #193 ) ;
#87 = ORIENTED_EDGE ( 'NONE', *, *, #172, .F. ) ;
#88 =( GEOMETRIC_REPRESENTATION_CONTEXT ( 3 ) GLOBAL_UNCERTAINTY_ASSIGNED_CONTEXT ( ( #230 ) ) GLOBAL_UNIT_ASSIGNED_CONTEXT ( ( #219, #134, #41 ) ) REPRESENTATION_CONTEXT ( 'NONE', 'WORKASPACE' ) );
#89 = EDGE_LOOP ( 'NONE', ( #87, #36, #105, #182 ) ) ;
#90 = CARTESIAN_POINT ( 'NONE',  ( 0.000000000000000000, 0.000000000000000000, 315.0000000000000000 ) ) ;
#91 = APPROVAL_DATE_TIME ( #22, #61 ) ;
#92 = DIRECTION ( 'NONE',  ( 0.000000000000000000, 0.000000000000000000, 1.000000000000000000 ) ) ;
#93 = CC_DESIGN_APPROVAL ( #141, ( #165 ) ) ;
#94 = CARTESIAN_POINT ( 'NONE',  ( 0.000000000000000000, 0.000000000000000000, 0.000000000000000000 ) ) ;
#95 = DIRECTION ( 'NONE',  ( -0.000000000000000000, -0.000000000000000000, -1.000000000000000000 ) ) ;
#96 = CC_DESIGN_PERSON_AND_ORGANIZATION_ASSIGNMENT ( #63, #174, ( #1 ) ) ;
#97 = DIRECTION ( 'NONE',  ( 1.000000000000000000, 0.000000000000000000, 0.000000000000000000 ) ) ;
#98 = CARTESIAN_POINT ( 'NONE',  ( -3.000000000000000444, 0.000000000000000000, 3.000000000000000000 ) ) ;
#99 = DIRECTION ( 'NONE',  ( 1.000000000000000000, 0.000000000000000000, -0.000000000000000000 ) ) ;
#100 = LOCAL_TIME ( 13, 11, 43.00000000000000000, #84 ) ;
#101 = CC_DESIGN_PERSON_AND_ORGANIZATION_ASSIGNMENT ( #50, #247, ( #148 ) ) ;
#102 = CARTESIAN_POINT ( 'NONE',  ( -3.000000000000000444, 0.000000000000000000, 0.000000000000000000 ) ) ;
#103 = APPROVAL_ROLE ( '' ) ;
#104 = DIRECTION ( 'NONE',  ( 1.000000000000000000, 0.000000000000000000, 0.000000000000000000 ) ) ;
#105 = ORIENTED_EDGE ( 'NONE', *, *, #125, .T. ) ;
#106 = ORIENTED_EDGE ( 'NONE', *, *, #121, .F. ) ;
#107 = CARTESIAN_POINT ( 'NONE',  ( 0.000000000000000000, 0.000000000000000000, 0.000000000000000000 ) ) ;
#108 = ORIENTED_EDGE ( 'NONE', *, *, #30, .T. ) ;
#109 = ADVANCED_FACE ( 'NONE', ( #208 ), #187, .F. ) ;
#110 = LINE ( 'NONE', #59, #216 ) ;
#111 = CARTESIAN_POINT ( 'NONE',  ( 1.600000000000000089, 1.959434878635765230E-16, 315.0000000000000000 ) ) ;
#112 = CARTESIAN_POINT ( 'NONE',  ( 0.000000000000000000, 0.000000000000000000, 315.0000000000000000 ) ) ;
#113 = DIRECTION ( 'NONE',  ( 1.000000000000000000, 0.000000000000000000, -0.000000000000000000 ) ) ;
#114 = DIRECTION ( 'NONE',  ( -0.000000000000000000, -0.000000000000000000, -1.000000000000000000 ) ) ;
#115 = CIRCLE ( 'NONE', #77, 3.000000000000000444 ) ;
#116 = CARTESIAN_POINT ( 'NONE',  ( 3.000000000000000444, 3.673940397442060361E-16, 0.000000000000000000 ) ) ;
#117 = PERSON_AND_ORGANIZATION_ROLE ( 'creator' ) ;
#118 = ADVANCED_FACE ( 'NONE', ( #20 ), #2, .T. ) ;
#119 = DIRECTION ( 'NONE',  ( 0.000000000000000000, 0.000000000000000000, 1.000000000000000000 ) ) ;
#120 = CARTESIAN_POINT ( 'NONE',  ( -3.000000000000000444, 0.000000000000000000, 3.000000000000000000 ) ) ;
#121 = EDGE_CURVE ( 'NONE', #51, #226, #115, .T. ) ;
#122 = CARTESIAN_POINT ( 'NONE',  ( 0.000000000000000000, 0.000000000000000000, 315.0000000000000000 ) ) ;
#123 = LOCAL_TIME ( 13, 11, 43.00000000000000000, #31 ) ;
#124 = AXIS2_PLACEMENT_3D ( 'NONE', #175, #171, #135 ) ;
#125 = EDGE_CURVE ( 'NONE', #201, #17, #4, .T. ) ;
#126 = ORIENTED_EDGE ( 'NONE', *, *, #166, .T. ) ;
#127 = PERSON_AND_ORGANIZATION ( #200, #213 ) ;
#128 = EDGE_LOOP ( 'NONE', ( #138, #145 ) ) ;
#129 = APPROVAL ( #221, 'NEURÈENÝ' ) ;
#130 = DIRECTION ( 'NONE',  ( 1.000000000000000000, 0.000000000000000000, 0.000000000000000000 ) ) ;
#131 = EDGE_CURVE ( 'NONE', #86, #17, #12, .T. ) ;
#132 = CYLINDRICAL_SURFACE ( 'NONE', #196, 1.600000000000000089 ) ;
#133 = DIRECTION ( 'NONE',  ( 1.000000000000000000, 0.000000000000000000, 0.000000000000000000 ) ) ;
#134 =( NAMED_UNIT ( * ) PLANE_ANGLE_UNIT ( ) SI_UNIT ( $, .RADIAN. ) );
#135 = DIRECTION ( 'NONE',  ( 1.000000000000000000, 0.000000000000000000, 0.000000000000000000 ) ) ;
#136 = DIRECTION ( 'NONE',  ( 0.000000000000000000, 0.000000000000000000, 1.000000000000000000 ) ) ;
#137 = AXIS2_PLACEMENT_3D ( 'NONE', #122, #95, #78 ) ;
#138 = ORIENTED_EDGE ( 'NONE', *, *, #220, .T. ) ;
#139 = COORDINATED_UNIVERSAL_TIME_OFFSET ( 1, 0, .AHEAD. ) ;
#140 = APPROVAL_ROLE ( '' ) ;
#141 = APPROVAL ( #44, 'NEURÈENÝ' ) ;
#142 = DIRECTION ( 'NONE',  ( -0.000000000000000000, -0.000000000000000000, -1.000000000000000000 ) ) ;
#143 = PRODUCT_RELATED_PRODUCT_CATEGORY ( 'detail', '', ( #45 ) ) ;
#144 = DATE_AND_TIME ( #223, #173 ) ;
#145 = ORIENTED_EDGE ( 'NONE', *, *, #161, .T. ) ;
#146 = ORIENTED_EDGE ( 'NONE', *, *, #166, .F. ) ;
#147 = ORIENTED_EDGE ( 'NONE', *, *, #235, .F. ) ;
#148 = PRODUCT_DEFINITION ( 'NEZNÁMÝ', '', #165, #254 ) ;
#149 = LOCAL_TIME ( 13, 11, 43.00000000000000000, #65 ) ;
#150 = DIRECTION ( 'NONE',  ( -0.000000000000000000, -0.000000000000000000, -1.000000000000000000 ) ) ;
#151 = DIRECTION ( 'NONE',  ( -1.000000000000000000, 0.000000000000000000, 0.000000000000000000 ) ) ;
#152 = ORIENTED_EDGE ( 'NONE', *, *, #121, .T. ) ;
#153 = EDGE_CURVE ( 'NONE', #226, #51, #178, .T. ) ;
#154 = CIRCLE ( 'NONE', #199, 1.600000000000000089 ) ;
#155 = MECHANICAL_CONTEXT ( 'NONE', #46, 'mechanical' ) ;
#156 = CALENDAR_DATE ( 2023, 12, 2 ) ;
#157 = AXIS2_PLACEMENT_3D ( 'NONE', #112, #119, #190 ) ;
#158 = DATE_TIME_ROLE ( 'creation_date' ) ;
#159 = APPLICATION_PROTOCOL_DEFINITION ( 'international standard', 'config_control_design', 1994, #46 ) ;
#160 = ORIENTED_EDGE ( 'NONE', *, *, #235, .T. ) ;
#161 = EDGE_CURVE ( 'NONE', #32, #201, #18, .T. ) ;
#162 = ORIENTED_EDGE ( 'NONE', *, *, #131, .T. ) ;
#163 = ORIENTED_EDGE ( 'NONE', *, *, #246, .T. ) ;
#164 = DIRECTION ( 'NONE',  ( 0.000000000000000000, 0.000000000000000000, 1.000000000000000000 ) ) ;
#165 = PRODUCT_DEFINITION_FORMATION_WITH_SPECIFIED_SOURCE ( 'LIBOVOLNÝ', '', #45, .NOT_KNOWN. ) ;
#166 = EDGE_CURVE ( 'NONE', #53, #184, #209, .T. ) ;
#167 = CARTESIAN_POINT ( 'NONE',  ( 0.000000000000000000, 0.000000000000000000, 3.000000000000000000 ) ) ;
#168 = DIRECTION ( 'NONE',  ( 1.000000000000000000, 0.000000000000000000, 0.000000000000000000 ) ) ;
#169 = CARTESIAN_POINT ( 'NONE',  ( 3.000000000000000444, 3.673940397442060361E-16, 3.000000000000000000 ) ) ;
#170 = PLANE ( 'NONE',  #157 ) ;
#171 = DIRECTION ( 'NONE',  ( 0.000000000000000000, 0.000000000000000000, 1.000000000000000000 ) ) ;
#172 = EDGE_CURVE ( 'NONE', #32, #86, #8, .T. ) ;
#173 = LOCAL_TIME ( 13, 11, 43.00000000000000000, #249 ) ;
#174 = PERSON_AND_ORGANIZATION_ROLE ( 'classification_officer' ) ;
#175 = CARTESIAN_POINT ( 'NONE',  ( 0.000000000000000000, 0.000000000000000000, 0.000000000000000000 ) ) ;
#176 = MANIFOLD_SOLID_BREP ( 'Pøidat vysunutím3', #16 ) ;
#177 = CYLINDRICAL_SURFACE ( 'NONE', #222, 3.000000000000000444 ) ;
#178 = CIRCLE ( 'NONE', #253, 3.000000000000000444 ) ;
#179 = PERSON_AND_ORGANIZATION ( #200, #213 ) ;
#180 = ADVANCED_FACE ( 'NONE', ( #76 ), #170, .T. ) ;
#181 = CALENDAR_DATE ( 2023, 12, 2 ) ;
#182 = ORIENTED_EDGE ( 'NONE', *, *, #79, .T. ) ;
#183 = CC_DESIGN_PERSON_AND_ORGANIZATION_ASSIGNMENT ( #29, #117, ( #165 ) ) ;
#184 = VERTEX_POINT ( 'NONE', #102 ) ;
#185 = AXIS2_PLACEMENT_3D ( 'NONE', #48, #198, #168 ) ;
#186 = CARTESIAN_POINT ( 'NONE',  ( 0.000000000000000000, 0.000000000000000000, 3.000000000000000000 ) ) ;
#187 = PLANE ( 'NONE',  #54 ) ;
#188 = CC_DESIGN_DATE_AND_TIME_ASSIGNMENT ( #11, #245, ( #1 ) ) ;
#189 = CARTESIAN_POINT ( 'NONE',  ( 0.000000000000000000, 0.000000000000000000, 3.000000000000000000 ) ) ;
#190 = DIRECTION ( 'NONE',  ( 1.000000000000000000, 0.000000000000000000, -0.000000000000000000 ) ) ;
#191 = DIRECTION ( 'NONE',  ( 0.000000000000000000, 0.000000000000000000, 1.000000000000000000 ) ) ;
#192 = ADVANCED_BREP_SHAPE_REPRESENTATION ( 'a951', ( #176, #239 ), #88 ) ;
#193 = CARTESIAN_POINT ( 'NONE',  ( 1.600000000000000089, 1.959434878635765230E-16, 3.000000000000000000 ) ) ;
#194 = PERSON_AND_ORGANIZATION ( #200, #213 ) ;
#195 = VECTOR ( 'NONE', #82, 1000.000000000000000 ) ;
#196 = AXIS2_PLACEMENT_3D ( 'NONE', #90, #70, #57 ) ;
#197 = DIRECTION ( 'NONE',  ( 0.000000000000000000, 0.000000000000000000, 1.000000000000000000 ) ) ;
#198 = DIRECTION ( 'NONE',  ( 0.000000000000000000, 0.000000000000000000, 1.000000000000000000 ) ) ;
#199 = AXIS2_PLACEMENT_3D ( 'NONE', #189, #38, #130 ) ;
#200 = PERSON ( 'NEURÈENÝ', 'NEURÈENÝ', 'NEURÈENÝ', ('NEURÈENÝ'), ('NEURÈENÝ'), ('NEURÈENÝ') ) ;
#201 = VERTEX_POINT ( 'NONE', #10 ) ;
#202 = LOCAL_TIME ( 13, 11, 43.00000000000000000, #139 ) ;
#203 = EDGE_LOOP ( 'NONE', ( #238, #146 ) ) ;
#204 = ORIENTED_EDGE ( 'NONE', *, *, #79, .F. ) ;
#205 = APPROVAL_DATE_TIME ( #144, #129 ) ;
#206 = EDGE_LOOP ( 'NONE', ( #229, #152 ) ) ;
#207 = CC_DESIGN_DATE_AND_TIME_ASSIGNMENT ( #13, #158, ( #148 ) ) ;
#208 = FACE_OUTER_BOUND ( 'NONE', #203, .T. ) ;
#209 = CIRCLE ( 'NONE', #124, 3.000000000000000444 ) ;
#210 = CARTESIAN_POINT ( 'NONE',  ( 0.000000000000000000, 0.000000000000000000, 3.000000000000000000 ) ) ;
#211 = FACE_OUTER_BOUND ( 'NONE', #206, .T. ) ;
#212 = ADVANCED_FACE ( 'NONE', ( #21 ), #218, .T. ) ;
#213 = ORGANIZATION ( 'NEURÈENÝ', 'NEURÈENÝ', '' ) ;
#214 = ADVANCED_FACE ( 'NONE', ( #237 ), #177, .T. ) ;
#215 = CIRCLE ( 'NONE', #3, 3.000000000000000444 ) ;
#216 = VECTOR ( 'NONE', #72, 1000.000000000000000 ) ;
#217 = CALENDAR_DATE ( 2023, 12, 2 ) ;
#218 = CYLINDRICAL_SURFACE ( 'NONE', #137, 1.600000000000000089 ) ;
#219 =( LENGTH_UNIT ( ) NAMED_UNIT ( * ) SI_UNIT ( .MILLI., .METRE. ) );
#220 = EDGE_CURVE ( 'NONE', #201, #32, #58, .T. ) ;
#221 = APPROVAL_STATUS ( 'not_yet_approved' ) ;
#222 = AXIS2_PLACEMENT_3D ( 'NONE', #80, #142, #244 ) ;
#223 = CALENDAR_DATE ( 2023, 12, 2 ) ;
#224 = AXIS2_PLACEMENT_3D ( 'NONE', #62, #191, #97 ) ;
#225 = ORIENTED_EDGE ( 'NONE', *, *, #172, .T. ) ;
#226 = VERTEX_POINT ( 'NONE', #98 ) ;
#227 = APPLICATION_PROTOCOL_DEFINITION ( 'international standard', 'config_control_design', 1994, #26 ) ;
#228 = AXIS2_PLACEMENT_3D ( 'NONE', #167, #75, #151 ) ;
#229 = ORIENTED_EDGE ( 'NONE', *, *, #153, .T. ) ;
#230 = UNCERTAINTY_MEASURE_WITH_UNIT (LENGTH_MEASURE( 1.000000000000000082E-05 ), #219, 'distance_accuracy_value', 'NONE');
#231 = CC_DESIGN_PERSON_AND_ORGANIZATION_ASSIGNMENT ( #194, #243, ( #165 ) ) ;
#232 = ORIENTED_EDGE ( 'NONE', *, *, #30, .F. ) ;
#233 = APPROVAL_PERSON_ORGANIZATION ( #250, #141, #140 ) ;
#234 = ORIENTED_EDGE ( 'NONE', *, *, #131, .F. ) ;
#235 = EDGE_CURVE ( 'NONE', #226, #184, #24, .T. ) ;
#236 = CARTESIAN_POINT ( 'NONE',  ( 0.000000000000000000, 0.000000000000000000, 3.000000000000000000 ) ) ;
#237 = FACE_OUTER_BOUND ( 'NONE', #252, .T. ) ;
#238 = ORIENTED_EDGE ( 'NONE', *, *, #246, .F. ) ;
#239 = AXIS2_PLACEMENT_3D ( 'NONE', #107, #55, #104 ) ;
#240 = CALENDAR_DATE ( 2023, 12, 2 ) ;
#241 = DIRECTION ( 'NONE',  ( 1.000000000000000000, 0.000000000000000000, 0.000000000000000000 ) ) ;
#242 = AXIS2_PLACEMENT_3D ( 'NONE', #236, #60, #133 ) ;
#243 = PERSON_AND_ORGANIZATION_ROLE ( 'design_supplier' ) ;
#244 = DIRECTION ( 'NONE',  ( -1.000000000000000000, 0.000000000000000000, 0.000000000000000000 ) ) ;
#245 = DATE_TIME_ROLE ( 'classification_date' ) ;
#246 = EDGE_CURVE ( 'NONE', #184, #53, #215, .T. ) ;
#247 = PERSON_AND_ORGANIZATION_ROLE ( 'creator' ) ;
#248 = APPROVAL_PERSON_ORGANIZATION ( #127, #129, #251 ) ;
#249 = COORDINATED_UNIVERSAL_TIME_OFFSET ( 1, 0, .AHEAD. ) ;
#250 = PERSON_AND_ORGANIZATION ( #200, #213 ) ;
#251 = APPROVAL_ROLE ( '' ) ;
#252 = EDGE_LOOP ( 'NONE', ( #232, #56, #160, #163 ) ) ;
#253 = AXIS2_PLACEMENT_3D ( 'NONE', #40, #25, #241 ) ;
#254 = DESIGN_CONTEXT ( 'detailed design', #26, 'design' ) ;
#255 = FACE_OUTER_BOUND ( 'NONE', #89, .T. ) ;
ENDSEC;
END-ISO-10303-21;
