ISO-10303-21;
HEADER;
FILE_DESCRIPTION (( 'STEP AP203' ),
    '1' );
FILE_NAME ('314f.STEP',
    '2022-07-07T12:47:03',
    ( '' ),
    ( '' ),
    'SwSTEP 2.0',
    'SolidWorks 2019',
    '' );
FILE_SCHEMA (( 'CONFIG_CONTROL_DESIGN' ));
ENDSEC;

DATA;
#1 = ORIENTED_EDGE ( 'NONE', *, *, #58, .T. ) ;
#2 = COORDINATED_UNIVERSAL_TIME_OFFSET ( 1, 0, .AHEAD. ) ;
#3 = LOCAL_TIME ( 14, 47, 3.000000000000000000, #185 ) ;
#4 = CARTESIAN_POINT ( 'NONE',  ( 0.000000000000000000, 0.000000000000000000, 3.000000000000000000 ) ) ;
#5 = APPLICATION_CONTEXT ( 'configuration controlled 3d designs of mechanical parts and assemblies' ) ;
#6 = ORIENTED_EDGE ( 'NONE', *, *, #107, .T. ) ;
#7 = PERSON_AND_ORGANIZATION ( #98, #305 ) ;
#8 = ORIENTED_EDGE ( 'NONE', *, *, #44, .F. ) ;
#9 = PERSON_AND_ORGANIZATION ( #98, #305 ) ;
#10 = CC_DESIGN_SECURITY_CLASSIFICATION ( #37, ( #255 ) ) ;
#11 = EDGE_CURVE ( 'NONE', #159, #180, #271, .T. ) ;
#12 = CC_DESIGN_PERSON_AND_ORGANIZATION_ASSIGNMENT ( #190, #243, ( #255 ) ) ;
#13 = CARTESIAN_POINT ( 'NONE',  ( -2.700000000000000178, 3.306546357697853733E-16, 2.999999999999997335 ) ) ;
#14 = LOCAL_TIME ( 14, 47, 3.000000000000000000, #2 ) ;
#15 = ORIENTED_EDGE ( 'NONE', *, *, #11, .F. ) ;
#16 = CYLINDRICAL_SURFACE ( 'NONE', #105, 2.500000000000000000 ) ;
#17 = DIRECTION ( 'NONE',  ( 0.000000000000000000, 0.000000000000000000, 1.000000000000000000 ) ) ;
#18 = DIRECTION ( 'NONE',  ( -0.000000000000000000, -0.000000000000000000, -1.000000000000000000 ) ) ;
#19 = CARTESIAN_POINT ( 'NONE',  ( 5.000000000000000000, 6.123233995736766282E-16, 3.000000000000000000 ) ) ;
#20 = PERSON_AND_ORGANIZATION ( #98, #305 ) ;
#21 = EDGE_CURVE ( 'NONE', #214, #43, #71, .T. ) ;
#22 = CARTESIAN_POINT ( 'NONE',  ( -5.000000000000000000, 0.000000000000000000, 0.000000000000000000 ) ) ;
#23 = DIRECTION ( 'NONE',  ( 0.000000000000000000, 0.000000000000000000, 1.000000000000000000 ) ) ;
#24 = AXIS2_PLACEMENT_3D ( 'NONE', #99, #116, #203 ) ;
#25 = PERSON_AND_ORGANIZATION ( #98, #305 ) ;
#26 = DIRECTION ( 'NONE',  ( 1.000000000000000000, 0.000000000000000000, 0.000000000000000000 ) ) ;
#27 = FACE_OUTER_BOUND ( 'NONE', #298, .T. ) ;
#28 = ORIENTED_EDGE ( 'NONE', *, *, #161, .F. ) ;
#29 = CARTESIAN_POINT ( 'NONE',  ( -2.500000000000000000, 0.000000000000000000, 3.199999999999994404 ) ) ;
#30 = CC_DESIGN_APPROVAL ( #251, ( #306 ) ) ;
#31 = ORIENTED_EDGE ( 'NONE', *, *, #38, .T. ) ;
#32 = APPROVAL_DATE_TIME ( #267, #270 ) ;
#33 = VERTEX_POINT ( 'NONE', #13 ) ;
#34 = DATE_AND_TIME ( #245, #234 ) ;
#35 = CC_DESIGN_PERSON_AND_ORGANIZATION_ASSIGNMENT ( #20, #117, ( #306 ) ) ;
#36 = AXIS2_PLACEMENT_3D ( 'NONE', #235, #70, #94 ) ;
#37 = SECURITY_CLASSIFICATION ( '', '', #171 ) ;
#38 = EDGE_CURVE ( 'NONE', #159, #217, #177, .T. ) ;
#39 = DIRECTION ( 'NONE',  ( -0.000000000000000000, -0.000000000000000000, -1.000000000000000000 ) ) ;
#40 = EDGE_LOOP ( 'NONE', ( #200, #135 ) ) ;
#41 = AXIS2_PLACEMENT_3D ( 'NONE', #281, #57, #263 ) ;
#42 = DIRECTION ( 'NONE',  ( 0.000000000000000000, 0.000000000000000000, 1.000000000000000000 ) ) ;
#43 = VERTEX_POINT ( 'NONE', #196 ) ;
#44 = EDGE_CURVE ( 'NONE', #214, #242, #273, .T. ) ;
#45 = DESIGN_CONTEXT ( 'detailed design', #5, 'design' ) ;
#46 = CARTESIAN_POINT ( 'NONE',  ( 2.500000000000000000, 3.061616997868383141E-16, 128.0000000000000000 ) ) ;
#47 = TOROIDAL_SURFACE ( 'NONE', #72, 2.700000000000000178, 0.2000000000000000111 ) ;
#48 = CARTESIAN_POINT ( 'NONE',  ( 0.000000000000000000, 0.000000000000000000, 3.199999999999994404 ) ) ;
#49 = DATE_AND_TIME ( #207, #14 ) ;
#50 = FACE_OUTER_BOUND ( 'NONE', #192, .T. ) ;
#51 = PLANE ( 'NONE',  #188 ) ;
#52 = VECTOR ( 'NONE', #39, 1000.000000000000000 ) ;
#53 = APPROVAL_ROLE ( '' ) ;
#54 = DIRECTION ( 'NONE',  ( 1.000000000000000000, 0.000000000000000000, 0.000000000000000000 ) ) ;
#55 = CARTESIAN_POINT ( 'NONE',  ( 0.000000000000000000, 0.000000000000000000, 0.000000000000000000 ) ) ;
#56 = EDGE_LOOP ( 'NONE', ( #110, #178, #90, #79 ) ) ;
#57 = DIRECTION ( 'NONE',  ( -0.000000000000000000, -0.000000000000000000, -1.000000000000000000 ) ) ;
#58 = EDGE_CURVE ( 'NONE', #217, #159, #113, .T. ) ;
#59 = AXIS2_PLACEMENT_3D ( 'NONE', #233, #151, #237 ) ;
#60 = EDGE_CURVE ( 'NONE', #242, #274, #302, .T. ) ;
#61 = PERSON_AND_ORGANIZATION ( #98, #305 ) ;
#62 = AXIS2_PLACEMENT_3D ( 'NONE', #165, #261, #54 ) ;
#63 = DIRECTION ( 'NONE',  ( 1.000000000000000000, 0.000000000000000000, -0.000000000000000000 ) ) ;
#64 = ADVANCED_FACE ( 'NONE', ( #133 ), #16, .T. ) ;
#65 = DIRECTION ( 'NONE',  ( 1.000000000000000000, 0.000000000000000000, 0.000000000000000000 ) ) ;
#66 = ORIENTED_EDGE ( 'NONE', *, *, #174, .T. ) ;
#67 = CIRCLE ( 'NONE', #86, 2.700000000000000178 ) ;
#68 = ORIENTED_EDGE ( 'NONE', *, *, #60, .F. ) ;
#69 = EDGE_LOOP ( 'NONE', ( #106, #194, #126, #225 ) ) ;
#70 = DIRECTION ( 'NONE',  ( 0.000000000000000000, 0.000000000000000000, 1.000000000000000000 ) ) ;
#71 = CIRCLE ( 'NONE', #224, 5.000000000000000000 ) ;
#72 = AXIS2_PLACEMENT_3D ( 'NONE', #118, #144, #162 ) ;
#73 = CARTESIAN_POINT ( 'NONE',  ( 2.500000000000000000, 3.061616997868383141E-16, 128.0000000000000000 ) ) ;
#74 = APPLICATION_CONTEXT ( 'configuration controlled 3d designs of mechanical parts and assemblies' ) ;
#75 = DIRECTION ( 'NONE',  ( 1.000000000000000000, 0.000000000000000000, 0.000000000000000000 ) ) ;
#76 = APPROVAL_ROLE ( '' ) ;
#77 = CARTESIAN_POINT ( 'NONE',  ( 2.700000000000000178, 0.000000000000000000, 3.199999999999994404 ) ) ;
#78 = DIRECTION ( 'NONE',  ( 1.000000000000000000, 0.000000000000000000, 0.000000000000000000 ) ) ;
#79 = ORIENTED_EDGE ( 'NONE', *, *, #166, .F. ) ;
#80 = APPROVAL_ROLE ( '' ) ;
#81 = AXIS2_PLACEMENT_3D ( 'NONE', #115, #42, #87 ) ;
#82 = ADVANCED_FACE ( 'NONE', ( #179, #202 ), #160, .T. ) ;
#83 = PERSON_AND_ORGANIZATION_ROLE ( 'classification_officer' ) ;
#84 = CC_DESIGN_PERSON_AND_ORGANIZATION_ASSIGNMENT ( #7, #83, ( #37 ) ) ;
#85 = EDGE_CURVE ( 'NONE', #217, #277, #155, .T. ) ;
#86 = AXIS2_PLACEMENT_3D ( 'NONE', #206, #181, #75 ) ;
#87 = DIRECTION ( 'NONE',  ( 1.000000000000000000, 0.000000000000000000, 0.000000000000000000 ) ) ;
#88 = DIRECTION ( 'NONE',  ( 1.000000000000000000, 0.000000000000000000, 0.000000000000000000 ) ) ;
#89 = EDGE_CURVE ( 'NONE', #277, #180, #216, .T. ) ;
#90 = ORIENTED_EDGE ( 'NONE', *, *, #241, .F. ) ;
#91 = AXIS2_PLACEMENT_3D ( 'NONE', #108, #186, #141 ) ;
#92 = ORIENTED_EDGE ( 'NONE', *, *, #21, .T. ) ;
#93 = DIRECTION ( 'NONE',  ( 0.000000000000000000, 0.000000000000000000, 1.000000000000000000 ) ) ;
#94 = DIRECTION ( 'NONE',  ( 1.000000000000000000, 0.000000000000000000, 0.000000000000000000 ) ) ;
#95 = DATE_TIME_ROLE ( 'creation_date' ) ;
#96 = LOCAL_TIME ( 14, 47, 3.000000000000000000, #104 ) ;
#97 = CARTESIAN_POINT ( 'NONE',  ( 2.500000000000000000, 3.061616997868383141E-16, 3.199999999999994404 ) ) ;
#98 = PERSON ( 'NEURÈENÝ', 'NEURÈENÝ', 'NEURÈENÝ', ('NEURÈENÝ'), ('NEURÈENÝ'), ('NEURÈENÝ') ) ;
#99 = CARTESIAN_POINT ( 'NONE',  ( 0.000000000000000000, 0.000000000000000000, 3.000000000000000000 ) ) ;
#100 =( NAMED_UNIT ( * ) PLANE_ANGLE_UNIT ( ) SI_UNIT ( $, .RADIAN. ) );
#101 = ORIENTED_EDGE ( 'NONE', *, *, #161, .T. ) ;
#102 = DIRECTION ( 'NONE',  ( -0.000000000000000000, -0.000000000000000000, -1.000000000000000000 ) ) ;
#103 = MANIFOLD_SOLID_BREP ( 'Zaoblit1', #238 ) ;
#104 = COORDINATED_UNIVERSAL_TIME_OFFSET ( 1, 0, .AHEAD. ) ;
#105 = AXIS2_PLACEMENT_3D ( 'NONE', #201, #128, #222 ) ;
#106 = ORIENTED_EDGE ( 'NONE', *, *, #154, .F. ) ;
#107 = EDGE_CURVE ( 'NONE', #274, #242, #260, .T. ) ;
#108 = CARTESIAN_POINT ( 'NONE',  ( 0.000000000000000000, 0.000000000000000000, 3.199999999999994404 ) ) ;
#109 = AXIS2_PLACEMENT_3D ( 'NONE', #77, #307, #123 ) ;
#110 = ORIENTED_EDGE ( 'NONE', *, *, #89, .F. ) ;
#111 = ADVANCED_FACE ( 'NONE', ( #278 ), #256, .T. ) ;
#112 = ORIENTED_EDGE ( 'NONE', *, *, #85, .T. ) ;
#113 = CIRCLE ( 'NONE', #129, 2.500000000000000000 ) ;
#114 = CARTESIAN_POINT ( 'NONE',  ( 5.000000000000000000, 6.123233995736766282E-16, 3.000000000000000000 ) ) ;
#115 = CARTESIAN_POINT ( 'NONE',  ( 0.000000000000000000, 0.000000000000000000, 0.000000000000000000 ) ) ;
#116 = DIRECTION ( 'NONE',  ( -0.000000000000000000, -0.000000000000000000, -1.000000000000000000 ) ) ;
#117 = PERSON_AND_ORGANIZATION_ROLE ( 'creator' ) ;
#118 = CARTESIAN_POINT ( 'NONE',  ( 0.000000000000000000, 0.000000000000000000, 3.199999999999994404 ) ) ;
#119 = CIRCLE ( 'NONE', #41, 2.700000000000000178 ) ;
#120 = LINE ( 'NONE', #164, #137 ) ;
#121 = PERSON_AND_ORGANIZATION_ROLE ( 'design_owner' ) ;
#122 = ADVANCED_FACE ( 'NONE', ( #301 ), #47, .F. ) ;
#123 = DIRECTION ( 'NONE',  ( 0.000000000000000000, 0.000000000000000000, -1.000000000000000000 ) ) ;
#124 = APPLICATION_PROTOCOL_DEFINITION ( 'international standard', 'config_control_design', 1994, #74 ) ;
#125 = FACE_OUTER_BOUND ( 'NONE', #236, .T. ) ;
#126 = ORIENTED_EDGE ( 'NONE', *, *, #166, .T. ) ;
#127 = PERSON_AND_ORGANIZATION_ROLE ( 'creator' ) ;
#128 = DIRECTION ( 'NONE',  ( -0.000000000000000000, -0.000000000000000000, -1.000000000000000000 ) ) ;
#129 = AXIS2_PLACEMENT_3D ( 'NONE', #157, #297, #249 ) ;
#130 = ORIENTED_EDGE ( 'NONE', *, *, #38, .F. ) ;
#131 = EDGE_CURVE ( 'NONE', #33, #136, #67, .T. ) ;
#132 = APPROVAL_PERSON_ORGANIZATION ( #61, #270, #80 ) ;
#133 = FACE_OUTER_BOUND ( 'NONE', #253, .T. ) ;
#134 = UNCERTAINTY_MEASURE_WITH_UNIT (LENGTH_MEASURE( 1.000000000000000082E-05 ), #282, 'distance_accuracy_value', 'NONE');
#135 = ORIENTED_EDGE ( 'NONE', *, *, #131, .T. ) ;
#136 = VERTEX_POINT ( 'NONE', #208 ) ;
#137 = VECTOR ( 'NONE', #139, 1000.000000000000000 ) ;
#138 = AXIS2_PLACEMENT_3D ( 'NONE', #283, #229, #26 ) ;
#139 = DIRECTION ( 'NONE',  ( -0.000000000000000000, -0.000000000000000000, -1.000000000000000000 ) ) ;
#140 = APPLICATION_PROTOCOL_DEFINITION ( 'international standard', 'config_control_design', 1994, #5 ) ;
#141 = DIRECTION ( 'NONE',  ( 1.000000000000000000, 0.000000000000000000, 0.000000000000000000 ) ) ;
#142 = PRODUCT_RELATED_PRODUCT_CATEGORY ( 'detail', '', ( #293 ) ) ;
#143 =( NAMED_UNIT ( * ) SI_UNIT ( $, .STERADIAN. ) SOLID_ANGLE_UNIT ( ) );
#144 = DIRECTION ( 'NONE',  ( 0.000000000000000000, 0.000000000000000000, 1.000000000000000000 ) ) ;
#145 = VECTOR ( 'NONE', #223, 1000.000000000000000 ) ;
#146 = ADVANCED_FACE ( 'NONE', ( #50 ), #51, .F. ) ;
#147 = COORDINATED_UNIVERSAL_TIME_OFFSET ( 1, 0, .AHEAD. ) ;
#148 = LOCAL_TIME ( 14, 47, 3.000000000000000000, #153 ) ;
#149 = CARTESIAN_POINT ( 'NONE',  ( -2.500000000000000000, 0.000000000000000000, 128.0000000000000000 ) ) ;
#150 = PLANE ( 'NONE',  #250 ) ;
#151 = DIRECTION ( 'NONE',  ( -0.000000000000000000, -0.000000000000000000, -1.000000000000000000 ) ) ;
#152 = CIRCLE ( 'NONE', #109, 0.2000000000000000944 ) ;
#153 = COORDINATED_UNIVERSAL_TIME_OFFSET ( 1, 0, .AHEAD. ) ;
#154 = EDGE_CURVE ( 'NONE', #277, #33, #169, .T. ) ;
#155 = LINE ( 'NONE', #247, #52 ) ;
#156 = EDGE_LOOP ( 'NONE', ( #8, #28, #66, #6 ) ) ;
#157 = CARTESIAN_POINT ( 'NONE',  ( 0.000000000000000000, 0.000000000000000000, 128.0000000000000000 ) ) ;
#158 = AXIS2_PLACEMENT_3D ( 'NONE', #55, #265, #78 ) ;
#159 = VERTEX_POINT ( 'NONE', #73 ) ;
#160 = PLANE ( 'NONE',  #231 ) ;
#161 = EDGE_CURVE ( 'NONE', #43, #214, #193, .T. ) ;
#162 = DIRECTION ( 'NONE',  ( 1.000000000000000000, 0.000000000000000000, 0.000000000000000000 ) ) ;
#163 = TOROIDAL_SURFACE ( 'NONE', #62, 2.700000000000000178, 0.2000000000000000111 ) ;
#164 = CARTESIAN_POINT ( 'NONE',  ( -5.000000000000000000, 0.000000000000000000, 3.000000000000000000 ) ) ;
#165 = CARTESIAN_POINT ( 'NONE',  ( 0.000000000000000000, 0.000000000000000000, 3.199999999999994404 ) ) ;
#166 = EDGE_CURVE ( 'NONE', #180, #136, #152, .T. ) ;
#167 = PERSON_AND_ORGANIZATION ( #98, #305 ) ;
#168 = FACE_OUTER_BOUND ( 'NONE', #69, .T. ) ;
#169 = CIRCLE ( 'NONE', #240, 0.2000000000000000944 ) ;
#170 = ORIENTED_EDGE ( 'NONE', *, *, #85, .F. ) ;
#171 = SECURITY_CLASSIFICATION_LEVEL ( 'unclassified' ) ;
#172 = DATE_TIME_ROLE ( 'classification_date' ) ;
#173 = EDGE_CURVE ( 'NONE', #180, #277, #288, .T. ) ;
#174 = EDGE_CURVE ( 'NONE', #43, #274, #120, .T. ) ;
#175 = EDGE_LOOP ( 'NONE', ( #1, #31 ) ) ;
#176 = CARTESIAN_POINT ( 'NONE',  ( 0.000000000000000000, 0.000000000000000000, 128.0000000000000000 ) ) ;
#177 = CIRCLE ( 'NONE', #191, 2.500000000000000000 ) ;
#178 = ORIENTED_EDGE ( 'NONE', *, *, #154, .T. ) ;
#179 = FACE_BOUND ( 'NONE', #40, .T. ) ;
#180 = VERTEX_POINT ( 'NONE', #97 ) ;
#181 = DIRECTION ( 'NONE',  ( -0.000000000000000000, -0.000000000000000000, -1.000000000000000000 ) ) ;
#182 = CARTESIAN_POINT ( 'NONE',  ( 5.000000000000000000, 6.123233995736766282E-16, 0.000000000000000000 ) ) ;
#183 = CC_DESIGN_APPROVAL ( #284, ( #255 ) ) ;
#184 = FACE_OUTER_BOUND ( 'NONE', #175, .T. ) ;
#185 = COORDINATED_UNIVERSAL_TIME_OFFSET ( 1, 0, .AHEAD. ) ;
#186 = DIRECTION ( 'NONE',  ( 0.000000000000000000, 0.000000000000000000, 1.000000000000000000 ) ) ;
#187 = DIRECTION ( 'NONE',  ( 1.000000000000000000, 0.000000000000000000, -0.000000000000000000 ) ) ;
#188 = AXIS2_PLACEMENT_3D ( 'NONE', #304, #226, #254 ) ;
#189 = CYLINDRICAL_SURFACE ( 'NONE', #59, 2.500000000000000000 ) ;
#190 = PERSON_AND_ORGANIZATION ( #98, #305 ) ;
#191 = AXIS2_PLACEMENT_3D ( 'NONE', #176, #252, #65 ) ;
#192 = EDGE_LOOP ( 'NONE', ( #244, #68 ) ) ;
#193 = CIRCLE ( 'NONE', #138, 5.000000000000000000 ) ;
#194 = ORIENTED_EDGE ( 'NONE', *, *, #173, .F. ) ;
#195 = APPROVAL_DATE_TIME ( #34, #284 ) ;
#196 = CARTESIAN_POINT ( 'NONE',  ( -5.000000000000000000, 0.000000000000000000, 3.000000000000000000 ) ) ;
#197 = APPROVAL_PERSON_ORGANIZATION ( #167, #284, #53 ) ;
#198 = ORIENTED_EDGE ( 'NONE', *, *, #11, .T. ) ;
#199 = ADVANCED_BREP_SHAPE_REPRESENTATION ( '314f', ( #103, #158 ), #276 ) ;
#200 = ORIENTED_EDGE ( 'NONE', *, *, #241, .T. ) ;
#201 = CARTESIAN_POINT ( 'NONE',  ( 0.000000000000000000, 0.000000000000000000, 128.0000000000000000 ) ) ;
#202 = FACE_OUTER_BOUND ( 'NONE', #292, .T. ) ;
#203 = DIRECTION ( 'NONE',  ( -1.000000000000000000, 0.000000000000000000, 0.000000000000000000 ) ) ;
#204 = CALENDAR_DATE ( 2022, 7, 7 ) ;
#205 = VECTOR ( 'NONE', #18, 1000.000000000000000 ) ;
#206 = CARTESIAN_POINT ( 'NONE',  ( 0.000000000000000000, 0.000000000000000000, 3.000000000000000000 ) ) ;
#207 = CALENDAR_DATE ( 2022, 7, 7 ) ;
#208 = CARTESIAN_POINT ( 'NONE',  ( 2.700000000000000178, 0.000000000000000000, 2.999999999999997335 ) ) ;
#209 = DIRECTION ( 'NONE',  ( -1.000000000000000000, 0.000000000000000000, 0.000000000000000000 ) ) ;
#210 = DIRECTION ( 'NONE',  ( 1.000000000000000000, 0.000000000000000000, 0.000000000000000000 ) ) ;
#211 = PERSON_AND_ORGANIZATION ( #98, #305 ) ;
#212 = CYLINDRICAL_SURFACE ( 'NONE', #280, 5.000000000000000000 ) ;
#213 = APPROVAL_PERSON_ORGANIZATION ( #211, #251, #76 ) ;
#214 = VERTEX_POINT ( 'NONE', #19 ) ;
#215 = ADVANCED_FACE ( 'NONE', ( #168 ), #163, .F. ) ;
#216 = CIRCLE ( 'NONE', #91, 2.500000000000000000 ) ;
#217 = VERTEX_POINT ( 'NONE', #149 ) ;
#218 = DATE_AND_TIME ( #291, #148 ) ;
#219 = ORIENTED_EDGE ( 'NONE', *, *, #60, .T. ) ;
#220 = ADVANCED_FACE ( 'NONE', ( #184 ), #150, .T. ) ;
#221 = ORIENTED_EDGE ( 'NONE', *, *, #58, .F. ) ;
#222 = DIRECTION ( 'NONE',  ( -1.000000000000000000, 0.000000000000000000, 0.000000000000000000 ) ) ;
#223 = DIRECTION ( 'NONE',  ( -0.000000000000000000, -0.000000000000000000, -1.000000000000000000 ) ) ;
#224 = AXIS2_PLACEMENT_3D ( 'NONE', #296, #17, #88 ) ;
#225 = ORIENTED_EDGE ( 'NONE', *, *, #131, .F. ) ;
#226 = DIRECTION ( 'NONE',  ( 0.000000000000000000, 0.000000000000000000, 1.000000000000000000 ) ) ;
#227 = CC_DESIGN_PERSON_AND_ORGANIZATION_ASSIGNMENT ( #25, #121, ( #293 ) ) ;
#228 = APPROVAL_DATE_TIME ( #49, #251 ) ;
#229 = DIRECTION ( 'NONE',  ( 0.000000000000000000, 0.000000000000000000, 1.000000000000000000 ) ) ;
#230 = CARTESIAN_POINT ( 'NONE',  ( 0.000000000000000000, 0.000000000000000000, 128.0000000000000000 ) ) ;
#231 = AXIS2_PLACEMENT_3D ( 'NONE', #299, #93, #63 ) ;
#232 = CARTESIAN_POINT ( 'NONE',  ( -2.700000000000000178, 3.306546357697853733E-16, 3.199999999999994404 ) ) ;
#233 = CARTESIAN_POINT ( 'NONE',  ( 0.000000000000000000, 0.000000000000000000, 128.0000000000000000 ) ) ;
#234 = LOCAL_TIME ( 14, 47, 3.000000000000000000, #147 ) ;
#235 = CARTESIAN_POINT ( 'NONE',  ( 0.000000000000000000, 0.000000000000000000, 0.000000000000000000 ) ) ;
#236 = EDGE_LOOP ( 'NONE', ( #286, #239, #219, #264 ) ) ;
#237 = DIRECTION ( 'NONE',  ( -1.000000000000000000, 0.000000000000000000, 0.000000000000000000 ) ) ;
#238 = CLOSED_SHELL ( 'NONE', ( #122, #64, #290, #111, #82, #146, #272, #220, #215 ) ) ;
#239 = ORIENTED_EDGE ( 'NONE', *, *, #44, .T. ) ;
#240 = AXIS2_PLACEMENT_3D ( 'NONE', #232, #258, #279 ) ;
#241 = EDGE_CURVE ( 'NONE', #136, #33, #119, .T. ) ;
#242 = VERTEX_POINT ( 'NONE', #182 ) ;
#243 = PERSON_AND_ORGANIZATION_ROLE ( 'design_supplier' ) ;
#244 = ORIENTED_EDGE ( 'NONE', *, *, #107, .F. ) ;
#245 = CALENDAR_DATE ( 2022, 7, 7 ) ;
#246 = CC_DESIGN_PERSON_AND_ORGANIZATION_ASSIGNMENT ( #9, #127, ( #255 ) ) ;
#247 = CARTESIAN_POINT ( 'NONE',  ( -2.500000000000000000, 0.000000000000000000, 128.0000000000000000 ) ) ;
#248 = ORIENTED_EDGE ( 'NONE', *, *, #89, .T. ) ;
#249 = DIRECTION ( 'NONE',  ( 1.000000000000000000, 0.000000000000000000, 0.000000000000000000 ) ) ;
#250 = AXIS2_PLACEMENT_3D ( 'NONE', #230, #285, #187 ) ;
#251 = APPROVAL ( #257, 'NEURÈENÝ' ) ;
#252 = DIRECTION ( 'NONE',  ( 0.000000000000000000, 0.000000000000000000, 1.000000000000000000 ) ) ;
#253 = EDGE_LOOP ( 'NONE', ( #130, #198, #295, #170 ) ) ;
#254 = DIRECTION ( 'NONE',  ( 1.000000000000000000, 0.000000000000000000, -0.000000000000000000 ) ) ;
#255 = PRODUCT_DEFINITION_FORMATION_WITH_SPECIFIED_SOURCE ( 'LIBOVOLNÝ', '', #293, .NOT_KNOWN. ) ;
#256 = CYLINDRICAL_SURFACE ( 'NONE', #24, 5.000000000000000000 ) ;
#257 = APPROVAL_STATUS ( 'not_yet_approved' ) ;
#258 = DIRECTION ( 'NONE',  ( 1.224646799147353207E-16, 1.000000000000000000, -0.000000000000000000 ) ) ;
#259 = APPROVAL_STATUS ( 'not_yet_approved' ) ;
#260 = CIRCLE ( 'NONE', #36, 5.000000000000000000 ) ;
#261 = DIRECTION ( 'NONE',  ( 0.000000000000000000, 0.000000000000000000, 1.000000000000000000 ) ) ;
#262 = PRODUCT_DEFINITION_SHAPE ( 'NONE', 'NONE',  #306 ) ;
#263 = DIRECTION ( 'NONE',  ( 1.000000000000000000, 0.000000000000000000, 0.000000000000000000 ) ) ;
#264 = ORIENTED_EDGE ( 'NONE', *, *, #174, .F. ) ;
#265 = DIRECTION ( 'NONE',  ( 0.000000000000000000, 0.000000000000000000, 1.000000000000000000 ) ) ;
#266 = APPROVAL_STATUS ( 'not_yet_approved' ) ;
#267 = DATE_AND_TIME ( #289, #96 ) ;
#268 = CC_DESIGN_APPROVAL ( #270, ( #37 ) ) ;
#269 = SHAPE_DEFINITION_REPRESENTATION ( #262, #199 ) ;
#270 = APPROVAL ( #266, 'NEURÈENÝ' ) ;
#271 = LINE ( 'NONE', #46, #145 ) ;
#272 = ADVANCED_FACE ( 'NONE', ( #27 ), #189, .T. ) ;
#273 = LINE ( 'NONE', #114, #205 ) ;
#274 = VERTEX_POINT ( 'NONE', #22 ) ;
#275 = CC_DESIGN_DATE_AND_TIME_ASSIGNMENT ( #218, #172, ( #37 ) ) ;
#276 =( GEOMETRIC_REPRESENTATION_CONTEXT ( 3 ) GLOBAL_UNCERTAINTY_ASSIGNED_CONTEXT ( ( #134 ) ) GLOBAL_UNIT_ASSIGNED_CONTEXT ( ( #282, #100, #143 ) ) REPRESENTATION_CONTEXT ( 'NONE', 'WORKASPACE' ) );
#277 = VERTEX_POINT ( 'NONE', #29 ) ;
#278 = FACE_OUTER_BOUND ( 'NONE', #156, .T. ) ;
#279 = DIRECTION ( 'NONE',  ( -1.000000000000000000, 1.224646799147353207E-16, 0.000000000000000000 ) ) ;
#280 = AXIS2_PLACEMENT_3D ( 'NONE', #4, #102, #209 ) ;
#281 = CARTESIAN_POINT ( 'NONE',  ( 0.000000000000000000, 0.000000000000000000, 3.000000000000000000 ) ) ;
#282 =( LENGTH_UNIT ( ) NAMED_UNIT ( * ) SI_UNIT ( .MILLI., .METRE. ) );
#283 = CARTESIAN_POINT ( 'NONE',  ( 0.000000000000000000, 0.000000000000000000, 3.000000000000000000 ) ) ;
#284 = APPROVAL ( #259, 'NEURÈENÝ' ) ;
#285 = DIRECTION ( 'NONE',  ( 0.000000000000000000, 0.000000000000000000, 1.000000000000000000 ) ) ;
#286 = ORIENTED_EDGE ( 'NONE', *, *, #21, .F. ) ;
#287 = MECHANICAL_CONTEXT ( 'NONE', #74, 'mechanical' ) ;
#288 = CIRCLE ( 'NONE', #294, 2.500000000000000000 ) ;
#289 = CALENDAR_DATE ( 2022, 7, 7 ) ;
#290 = ADVANCED_FACE ( 'NONE', ( #125 ), #212, .T. ) ;
#291 = CALENDAR_DATE ( 2022, 7, 7 ) ;
#292 = EDGE_LOOP ( 'NONE', ( #101, #92 ) ) ;
#293 = PRODUCT ( '314f', '314f', '', ( #287 ) ) ;
#294 = AXIS2_PLACEMENT_3D ( 'NONE', #48, #23, #210 ) ;
#295 = ORIENTED_EDGE ( 'NONE', *, *, #173, .T. ) ;
#296 = CARTESIAN_POINT ( 'NONE',  ( 0.000000000000000000, 0.000000000000000000, 3.000000000000000000 ) ) ;
#297 = DIRECTION ( 'NONE',  ( 0.000000000000000000, 0.000000000000000000, 1.000000000000000000 ) ) ;
#298 = EDGE_LOOP ( 'NONE', ( #15, #221, #112, #248 ) ) ;
#299 = CARTESIAN_POINT ( 'NONE',  ( 0.000000000000000000, 0.000000000000000000, 3.000000000000000000 ) ) ;
#300 = CC_DESIGN_DATE_AND_TIME_ASSIGNMENT ( #303, #95, ( #306 ) ) ;
#301 = FACE_OUTER_BOUND ( 'NONE', #56, .T. ) ;
#302 = CIRCLE ( 'NONE', #81, 5.000000000000000000 ) ;
#303 = DATE_AND_TIME ( #204, #3 ) ;
#304 = CARTESIAN_POINT ( 'NONE',  ( 0.000000000000000000, 0.000000000000000000, 0.000000000000000000 ) ) ;
#305 = ORGANIZATION ( 'NEURÈENÝ', 'NEURÈENÝ', '' ) ;
#306 = PRODUCT_DEFINITION ( 'NEZNÁMÝ', '', #255, #45 ) ;
#307 = DIRECTION ( 'NONE',  ( 0.000000000000000000, -1.000000000000000000, 0.000000000000000000 ) ) ;
ENDSEC;
END-ISO-10303-21;
