ISO-10303-21;
HEADER;
FILE_DESCRIPTION (( 'STEP AP203' ),
    '1' );
FILE_NAME ('7182.STEP',
    '2022-07-07T12:39:56',
    ( '' ),
    ( '' ),
    'SwSTEP 2.0',
    'SolidWorks 2019',
    '' );
FILE_SCHEMA (( 'CONFIG_CONTROL_DESIGN' ));
ENDSEC;

DATA;
#1 = PERSON_AND_ORGANIZATION ( #18, #209 ) ;
#2 =( NAMED_UNIT ( * ) PLANE_ANGLE_UNIT ( ) SI_UNIT ( $, .RADIAN. ) );
#3 = CIRCLE ( 'NONE', #290, 3.100000000000000089 ) ;
#4 = ORIENTED_EDGE ( 'NONE', *, *, #62, .T. ) ;
#5 = DIRECTION ( 'NONE',  ( 0.000000000000000000, -1.000000000000000000, 0.000000000000000000 ) ) ;
#6 = ORIENTED_EDGE ( 'NONE', *, *, #270, .T. ) ;
#7 = CARTESIAN_POINT ( 'NONE',  ( 6.000000000000000888, 7.347880794884120722E-16, 5.000000000000000000 ) ) ;
#8 = CC_DESIGN_APPROVAL ( #301, ( #42 ) ) ;
#9 = CARTESIAN_POINT ( 'NONE',  ( 3.299999999999999822, 0.000000000000000000, 4.999999999999991118 ) ) ;
#10 = EDGE_LOOP ( 'NONE', ( #234, #4, #22, #205 ) ) ;
#11 = DIRECTION ( 'NONE',  ( -1.000000000000000000, 0.000000000000000000, 0.000000000000000000 ) ) ;
#12 = VECTOR ( 'NONE', #143, 1000.000000000000000 ) ;
#13 = UNCERTAINTY_MEASURE_WITH_UNIT (LENGTH_MEASURE( 1.000000000000000082E-05 ), #230, 'distance_accuracy_value', 'NONE');
#14 = DIRECTION ( 'NONE',  ( 0.000000000000000000, 0.000000000000000000, 1.000000000000000000 ) ) ;
#15 = LINE ( 'NONE', #64, #272 ) ;
#16 = PLANE ( 'NONE',  #239 ) ;
#17 = CARTESIAN_POINT ( 'NONE',  ( 0.000000000000000000, 0.000000000000000000, 5.199999999999982414 ) ) ;
#18 = PERSON ( 'NEURÈENÝ', 'NEURÈENÝ', 'NEURÈENÝ', ('NEURÈENÝ'), ('NEURÈENÝ'), ('NEURÈENÝ') ) ;
#19 = CC_DESIGN_PERSON_AND_ORGANIZATION_ASSIGNMENT ( #110, #95, ( #52 ) ) ;
#20 = CIRCLE ( 'NONE', #221, 0.2000000000000000944 ) ;
#21 = COORDINATED_UNIVERSAL_TIME_OFFSET ( 1, 0, .AHEAD. ) ;
#22 = ORIENTED_EDGE ( 'NONE', *, *, #202, .T. ) ;
#23 = PERSON_AND_ORGANIZATION_ROLE ( 'design_supplier' ) ;
#24 = APPROVAL_DATE_TIME ( #135, #238 ) ;
#25 = EDGE_CURVE ( 'NONE', #93, #82, #146, .T. ) ;
#26 = CALENDAR_DATE ( 2022, 7, 7 ) ;
#27 = AXIS2_PLACEMENT_3D ( 'NONE', #195, #61, #178 ) ;
#28 = CARTESIAN_POINT ( 'NONE',  ( 0.000000000000000000, 0.000000000000000000, 0.000000000000000000 ) ) ;
#29 = PRODUCT_DEFINITION ( 'NEZNÁMÝ', '', #42, #148 ) ;
#30 = DIRECTION ( 'NONE',  ( 1.000000000000000000, 0.000000000000000000, 0.000000000000000000 ) ) ;
#31 = ORIENTED_EDGE ( 'NONE', *, *, #81, .T. ) ;
#32 = AXIS2_PLACEMENT_3D ( 'NONE', #190, #5, #122 ) ;
#33 = AXIS2_PLACEMENT_3D ( 'NONE', #191, #145, #245 ) ;
#34 = CARTESIAN_POINT ( 'NONE',  ( 0.000000000000000000, 0.000000000000000000, 5.000000000000000000 ) ) ;
#35 = ORIENTED_EDGE ( 'NONE', *, *, #81, .F. ) ;
#36 = AXIS2_PLACEMENT_3D ( 'NONE', #89, #180, #38 ) ;
#37 = LOCAL_TIME ( 14, 39, 56.00000000000000000, #259 ) ;
#38 = DIRECTION ( 'NONE',  ( -1.000000000000000000, 0.000000000000000000, 0.000000000000000000 ) ) ;
#39 = CARTESIAN_POINT ( 'NONE',  ( -3.100000000000000089, 0.000000000000000000, 5.199999999999982414 ) ) ;
#40 = DIRECTION ( 'NONE',  ( 0.000000000000000000, 0.000000000000000000, 1.000000000000000000 ) ) ;
#41 = APPLICATION_CONTEXT ( 'configuration controlled 3d designs of mechanical parts and assemblies' ) ;
#42 = PRODUCT_DEFINITION_FORMATION_WITH_SPECIFIED_SOURCE ( 'LIBOVOLNÝ', '', #52, .NOT_KNOWN. ) ;
#43 = DIRECTION ( 'NONE',  ( 0.000000000000000000, 0.000000000000000000, 1.000000000000000000 ) ) ;
#44 = PERSON_AND_ORGANIZATION_ROLE ( 'creator' ) ;
#45 = EDGE_LOOP ( 'NONE', ( #70, #236 ) ) ;
#46 = COORDINATED_UNIVERSAL_TIME_OFFSET ( 1, 0, .AHEAD. ) ;
#47 = VERTEX_POINT ( 'NONE', #264 ) ;
#48 = EDGE_CURVE ( 'NONE', #47, #82, #187, .T. ) ;
#49 = CARTESIAN_POINT ( 'NONE',  ( 0.000000000000000000, 0.000000000000000000, 0.000000000000000000 ) ) ;
#50 = APPROVAL_DATE_TIME ( #260, #127 ) ;
#51 = VERTEX_POINT ( 'NONE', #216 ) ;
#52 = PRODUCT ( '7182', '7182', '', ( #133 ) ) ;
#53 = AXIS2_PLACEMENT_3D ( 'NONE', #102, #210, #242 ) ;
#54 = CARTESIAN_POINT ( 'NONE',  ( -3.299999999999999822, 4.041334437186265510E-16, 5.199999999999982414 ) ) ;
#55 = VERTEX_POINT ( 'NONE', #79 ) ;
#56 = DIRECTION ( 'NONE',  ( 1.000000000000000000, 0.000000000000000000, 0.000000000000000000 ) ) ;
#57 = EDGE_LOOP ( 'NONE', ( #212, #175 ) ) ;
#58 = TOROIDAL_SURFACE ( 'NONE', #83, 3.299999999999999822, 0.2000000000000000111 ) ;
#59 = ORIENTED_EDGE ( 'NONE', *, *, #139, .T. ) ;
#60 = DIRECTION ( 'NONE',  ( 1.000000000000000000, 0.000000000000000000, 0.000000000000000000 ) ) ;
#61 = DIRECTION ( 'NONE',  ( 0.000000000000000000, 0.000000000000000000, 1.000000000000000000 ) ) ;
#62 = EDGE_CURVE ( 'NONE', #217, #51, #96, .T. ) ;
#63 = APPROVAL_PERSON_ORGANIZATION ( #304, #301, #90 ) ;
#64 = CARTESIAN_POINT ( 'NONE',  ( -6.000000000000000888, 0.000000000000000000, 5.000000000000000000 ) ) ;
#65 = DIRECTION ( 'NONE',  ( 0.000000000000000000, 0.000000000000000000, 1.000000000000000000 ) ) ;
#66 = DIRECTION ( 'NONE',  ( -0.000000000000000000, -0.000000000000000000, -1.000000000000000000 ) ) ;
#67 = AXIS2_PLACEMENT_3D ( 'NONE', #131, #220, #225 ) ;
#68 = APPROVAL_STATUS ( 'not_yet_approved' ) ;
#69 =( NAMED_UNIT ( * ) SI_UNIT ( $, .STERADIAN. ) SOLID_ANGLE_UNIT ( ) );
#70 = ORIENTED_EDGE ( 'NONE', *, *, #134, .T. ) ;
#71 = ORIENTED_EDGE ( 'NONE', *, *, #48, .F. ) ;
#72 = TOROIDAL_SURFACE ( 'NONE', #121, 3.299999999999999822, 0.2000000000000000111 ) ;
#73 = PERSON_AND_ORGANIZATION ( #18, #209 ) ;
#74 = SECURITY_CLASSIFICATION ( '', '', #116 ) ;
#75 = ADVANCED_FACE ( 'NONE', ( #266 ), #168, .T. ) ;
#76 = ORIENTED_EDGE ( 'NONE', *, *, #101, .F. ) ;
#77 = AXIS2_PLACEMENT_3D ( 'NONE', #241, #265, #192 ) ;
#78 = ORIENTED_EDGE ( 'NONE', *, *, #125, .F. ) ;
#79 = CARTESIAN_POINT ( 'NONE',  ( -3.100000000000000089, 0.000000000000000000, 405.0000000000000000 ) ) ;
#80 = DIRECTION ( 'NONE',  ( 1.224646799147353207E-16, 1.000000000000000000, -0.000000000000000000 ) ) ;
#81 = EDGE_CURVE ( 'NONE', #281, #217, #173, .T. ) ;
#82 = VERTEX_POINT ( 'NONE', #9 ) ;
#83 = AXIS2_PLACEMENT_3D ( 'NONE', #17, #282, #94 ) ;
#84 = DIRECTION ( 'NONE',  ( 1.000000000000000000, 0.000000000000000000, 0.000000000000000000 ) ) ;
#85 = CARTESIAN_POINT ( 'NONE',  ( -3.100000000000000089, 0.000000000000000000, 405.0000000000000000 ) ) ;
#86 = LINE ( 'NONE', #85, #104 ) ;
#87 = APPROVAL_PERSON_ORGANIZATION ( #188, #238, #111 ) ;
#88 = DIRECTION ( 'NONE',  ( 0.000000000000000000, 0.000000000000000000, 1.000000000000000000 ) ) ;
#89 = CARTESIAN_POINT ( 'NONE',  ( 0.000000000000000000, 0.000000000000000000, 5.000000000000000000 ) ) ;
#90 = APPROVAL_ROLE ( '' ) ;
#91 = CLOSED_SHELL ( 'NONE', ( #275, #144, #114, #149, #197, #130, #75, #181, #295 ) ) ;
#92 = PERSON_AND_ORGANIZATION ( #18, #209 ) ;
#93 = VERTEX_POINT ( 'NONE', #293 ) ;
#94 = DIRECTION ( 'NONE',  ( 1.000000000000000000, 0.000000000000000000, 0.000000000000000000 ) ) ;
#95 = PERSON_AND_ORGANIZATION_ROLE ( 'design_owner' ) ;
#96 = LINE ( 'NONE', #7, #12 ) ;
#97 = CC_DESIGN_PERSON_AND_ORGANIZATION_ASSIGNMENT ( #279, #23, ( #42 ) ) ;
#98 = ORIENTED_EDGE ( 'NONE', *, *, #255, .F. ) ;
#99 = EDGE_LOOP ( 'NONE', ( #244, #231 ) ) ;
#100 = CYLINDRICAL_SURFACE ( 'NONE', #164, 6.000000000000000888 ) ;
#101 = EDGE_CURVE ( 'NONE', #93, #269, #126, .T. ) ;
#102 = CARTESIAN_POINT ( 'NONE',  ( 0.000000000000000000, 0.000000000000000000, 5.000000000000000000 ) ) ;
#103 = FACE_OUTER_BOUND ( 'NONE', #305, .T. ) ;
#104 = VECTOR ( 'NONE', #227, 1000.000000000000000 ) ;
#105 = LINE ( 'NONE', #249, #157 ) ;
#106 = DIRECTION ( 'NONE',  ( -0.000000000000000000, -0.000000000000000000, -1.000000000000000000 ) ) ;
#107 = DIRECTION ( 'NONE',  ( 1.000000000000000000, 0.000000000000000000, 0.000000000000000000 ) ) ;
#108 = AXIS2_PLACEMENT_3D ( 'NONE', #49, #43, #158 ) ;
#109 = CARTESIAN_POINT ( 'NONE',  ( 0.000000000000000000, 0.000000000000000000, 5.199999999999982414 ) ) ;
#110 = PERSON_AND_ORGANIZATION ( #18, #209 ) ;
#111 = APPROVAL_ROLE ( '' ) ;
#112 = AXIS2_PLACEMENT_3D ( 'NONE', #248, #128, #60 ) ;
#113 = CC_DESIGN_APPROVAL ( #127, ( #74 ) ) ;
#114 = ADVANCED_FACE ( 'NONE', ( #150 ), #100, .T. ) ;
#115 = EDGE_LOOP ( 'NONE', ( #213, #98, #167, #59 ) ) ;
#116 = SECURITY_CLASSIFICATION_LEVEL ( 'unclassified' ) ;
#117 = CIRCLE ( 'NONE', #257, 3.299999999999999822 ) ;
#118 = COORDINATED_UNIVERSAL_TIME_OFFSET ( 1, 0, .AHEAD. ) ;
#119 = DIRECTION ( 'NONE',  ( -0.000000000000000000, -0.000000000000000000, -1.000000000000000000 ) ) ;
#120 = EDGE_LOOP ( 'NONE', ( #138, #189, #183, #261 ) ) ;
#121 = AXIS2_PLACEMENT_3D ( 'NONE', #177, #196, #198 ) ;
#122 = DIRECTION ( 'NONE',  ( 0.000000000000000000, 0.000000000000000000, -1.000000000000000000 ) ) ;
#123 = ORIENTED_EDGE ( 'NONE', *, *, #286, .F. ) ;
#124 = DIRECTION ( 'NONE',  ( 1.000000000000000000, 0.000000000000000000, 0.000000000000000000 ) ) ;
#125 = EDGE_CURVE ( 'NONE', #269, #47, #20, .T. ) ;
#126 = CIRCLE ( 'NONE', #33, 3.100000000000000089 ) ;
#127 = APPROVAL ( #68, 'NEURÈENÝ' ) ;
#128 = DIRECTION ( 'NONE',  ( 0.000000000000000000, 0.000000000000000000, 1.000000000000000000 ) ) ;
#129 = DIRECTION ( 'NONE',  ( -0.000000000000000000, -0.000000000000000000, -1.000000000000000000 ) ) ;
#130 = ADVANCED_FACE ( 'NONE', ( #142 ), #240, .F. ) ;
#131 = CARTESIAN_POINT ( 'NONE',  ( 0.000000000000000000, 0.000000000000000000, 405.0000000000000000 ) ) ;
#132 = CIRCLE ( 'NONE', #214, 3.100000000000000089 ) ;
#133 = MECHANICAL_CONTEXT ( 'NONE', #41, 'mechanical' ) ;
#134 = EDGE_CURVE ( 'NONE', #82, #47, #117, .T. ) ;
#135 = DATE_AND_TIME ( #303, #153 ) ;
#136 = EDGE_LOOP ( 'NONE', ( #78, #76, #287, #71 ) ) ;
#137 = DATE_TIME_ROLE ( 'creation_date' ) ;
#138 = ORIENTED_EDGE ( 'NONE', *, *, #139, .F. ) ;
#139 = EDGE_CURVE ( 'NONE', #269, #93, #132, .T. ) ;
#140 = SHAPE_DEFINITION_REPRESENTATION ( #219, #268 ) ;
#141 = ORIENTED_EDGE ( 'NONE', *, *, #101, .T. ) ;
#142 = FACE_OUTER_BOUND ( 'NONE', #99, .T. ) ;
#143 = DIRECTION ( 'NONE',  ( -0.000000000000000000, -0.000000000000000000, -1.000000000000000000 ) ) ;
#144 = ADVANCED_FACE ( 'NONE', ( #271 ), #302, .T. ) ;
#145 = DIRECTION ( 'NONE',  ( 0.000000000000000000, 0.000000000000000000, 1.000000000000000000 ) ) ;
#146 = CIRCLE ( 'NONE', #32, 0.1999999999999996503 ) ;
#147 = DIRECTION ( 'NONE',  ( 1.000000000000000000, 0.000000000000000000, -0.000000000000000000 ) ) ;
#148 = DESIGN_CONTEXT ( 'detailed design', #186, 'design' ) ;
#149 = ADVANCED_FACE ( 'NONE', ( #154 ), #201, .T. ) ;
#150 = FACE_OUTER_BOUND ( 'NONE', #10, .T. ) ;
#151 = DIRECTION ( 'NONE',  ( 1.000000000000000000, 0.000000000000000000, -0.000000000000000000 ) ) ;
#152 = CARTESIAN_POINT ( 'NONE',  ( 0.000000000000000000, 0.000000000000000000, 0.000000000000000000 ) ) ;
#153 = LOCAL_TIME ( 14, 39, 56.00000000000000000, #21 ) ;
#154 = FACE_OUTER_BOUND ( 'NONE', #171, .T. ) ;
#155 = CC_DESIGN_PERSON_AND_ORGANIZATION_ASSIGNMENT ( #1, #166, ( #74 ) ) ;
#156 = FACE_OUTER_BOUND ( 'NONE', #57, .T. ) ;
#157 = VECTOR ( 'NONE', #106, 1000.000000000000000 ) ;
#158 = DIRECTION ( 'NONE',  ( 1.000000000000000000, 0.000000000000000000, 0.000000000000000000 ) ) ;
#159 = EDGE_CURVE ( 'NONE', #283, #51, #294, .T. ) ;
#160 = ORIENTED_EDGE ( 'NONE', *, *, #211, .T. ) ;
#161 = PRODUCT_RELATED_PRODUCT_CATEGORY ( 'detail', '', ( #52 ) ) ;
#162 = APPROVAL_STATUS ( 'not_yet_approved' ) ;
#163 = ORIENTED_EDGE ( 'NONE', *, *, #280, .T. ) ;
#164 = AXIS2_PLACEMENT_3D ( 'NONE', #289, #193, #262 ) ;
#165 = AXIS2_PLACEMENT_3D ( 'NONE', #222, #40, #151 ) ;
#166 = PERSON_AND_ORGANIZATION_ROLE ( 'classification_officer' ) ;
#167 = ORIENTED_EDGE ( 'NONE', *, *, #286, .T. ) ;
#168 = CYLINDRICAL_SURFACE ( 'NONE', #77, 3.100000000000000089 ) ;
#169 = AXIS2_PLACEMENT_3D ( 'NONE', #28, #172, #147 ) ;
#170 = CC_DESIGN_DATE_AND_TIME_ASSIGNMENT ( #252, #137, ( #29 ) ) ;
#171 = EDGE_LOOP ( 'NONE', ( #307, #35, #163, #208 ) ) ;
#172 = DIRECTION ( 'NONE',  ( 0.000000000000000000, 0.000000000000000000, 1.000000000000000000 ) ) ;
#173 = CIRCLE ( 'NONE', #263, 6.000000000000000888 ) ;
#174 = APPROVAL_PERSON_ORGANIZATION ( #92, #127, #254 ) ;
#175 = ORIENTED_EDGE ( 'NONE', *, *, #228, .T. ) ;
#176 = FACE_OUTER_BOUND ( 'NONE', #120, .T. ) ;
#177 = CARTESIAN_POINT ( 'NONE',  ( 0.000000000000000000, 0.000000000000000000, 5.199999999999982414 ) ) ;
#178 = DIRECTION ( 'NONE',  ( 1.000000000000000000, 0.000000000000000000, 0.000000000000000000 ) ) ;
#179 = CARTESIAN_POINT ( 'NONE',  ( 3.100000000000000089, 3.796405077356794918E-16, 405.0000000000000000 ) ) ;
#180 = DIRECTION ( 'NONE',  ( -0.000000000000000000, -0.000000000000000000, -1.000000000000000000 ) ) ;
#181 = ADVANCED_FACE ( 'NONE', ( #156 ), #16, .T. ) ;
#182 = APPROVAL_DATE_TIME ( #184, #301 ) ;
#183 = ORIENTED_EDGE ( 'NONE', *, *, #134, .F. ) ;
#184 = DATE_AND_TIME ( #235, #233 ) ;
#185 = PERSON_AND_ORGANIZATION_ROLE ( 'creator' ) ;
#186 = APPLICATION_CONTEXT ( 'configuration controlled 3d designs of mechanical parts and assemblies' ) ;
#187 = CIRCLE ( 'NONE', #53, 3.299999999999999822 ) ;
#188 = PERSON_AND_ORGANIZATION ( #18, #209 ) ;
#189 = ORIENTED_EDGE ( 'NONE', *, *, #125, .T. ) ;
#190 = CARTESIAN_POINT ( 'NONE',  ( 3.299999999999999822, 0.000000000000000000, 5.199999999999982414 ) ) ;
#191 = CARTESIAN_POINT ( 'NONE',  ( 0.000000000000000000, 0.000000000000000000, 5.199999999999982414 ) ) ;
#192 = DIRECTION ( 'NONE',  ( -1.000000000000000000, 0.000000000000000000, 0.000000000000000000 ) ) ;
#193 = DIRECTION ( 'NONE',  ( -0.000000000000000000, -0.000000000000000000, -1.000000000000000000 ) ) ;
#194 = CARTESIAN_POINT ( 'NONE',  ( 0.000000000000000000, 0.000000000000000000, 5.000000000000000000 ) ) ;
#195 = CARTESIAN_POINT ( 'NONE',  ( 0.000000000000000000, 0.000000000000000000, 0.000000000000000000 ) ) ;
#196 = DIRECTION ( 'NONE',  ( 0.000000000000000000, 0.000000000000000000, 1.000000000000000000 ) ) ;
#197 = ADVANCED_FACE ( 'NONE', ( #246, #103 ), #273, .T. ) ;
#198 = DIRECTION ( 'NONE',  ( 1.000000000000000000, 0.000000000000000000, 0.000000000000000000 ) ) ;
#199 = CARTESIAN_POINT ( 'NONE',  ( 0.000000000000000000, 0.000000000000000000, 405.0000000000000000 ) ) ;
#200 = CC_DESIGN_DATE_AND_TIME_ASSIGNMENT ( #232, #277, ( #74 ) ) ;
#201 = CYLINDRICAL_SURFACE ( 'NONE', #36, 6.000000000000000888 ) ;
#202 = EDGE_CURVE ( 'NONE', #51, #283, #203, .T. ) ;
#203 = CIRCLE ( 'NONE', #247, 6.000000000000000888 ) ;
#204 = APPLICATION_PROTOCOL_DEFINITION ( 'international standard', 'config_control_design', 1994, #186 ) ;
#205 = ORIENTED_EDGE ( 'NONE', *, *, #280, .F. ) ;
#206 = COORDINATED_UNIVERSAL_TIME_OFFSET ( 1, 0, .AHEAD. ) ;
#207 = CALENDAR_DATE ( 2022, 7, 7 ) ;
#208 = ORIENTED_EDGE ( 'NONE', *, *, #159, .T. ) ;
#209 = ORGANIZATION ( 'NEURÈENÝ', 'NEURÈENÝ', '' ) ;
#210 = DIRECTION ( 'NONE',  ( -0.000000000000000000, -0.000000000000000000, -1.000000000000000000 ) ) ;
#211 = EDGE_CURVE ( 'NONE', #217, #281, #250, .T. ) ;
#212 = ORIENTED_EDGE ( 'NONE', *, *, #255, .T. ) ;
#213 = ORIENTED_EDGE ( 'NONE', *, *, #270, .F. ) ;
#214 = AXIS2_PLACEMENT_3D ( 'NONE', #109, #88, #107 ) ;
#215 = LOCAL_TIME ( 14, 39, 56.00000000000000000, #118 ) ;
#216 = CARTESIAN_POINT ( 'NONE',  ( 6.000000000000000888, 7.347880794884120722E-16, 0.000000000000000000 ) ) ;
#217 = VERTEX_POINT ( 'NONE', #300 ) ;
#218 = CC_DESIGN_PERSON_AND_ORGANIZATION_ASSIGNMENT ( #73, #185, ( #42 ) ) ;
#219 = PRODUCT_DEFINITION_SHAPE ( 'NONE', 'NONE',  #29 ) ;
#220 = DIRECTION ( 'NONE',  ( 0.000000000000000000, 0.000000000000000000, 1.000000000000000000 ) ) ;
#221 = AXIS2_PLACEMENT_3D ( 'NONE', #54, #80, #292 ) ;
#222 = CARTESIAN_POINT ( 'NONE',  ( 0.000000000000000000, 0.000000000000000000, 5.000000000000000000 ) ) ;
#223 = CC_DESIGN_PERSON_AND_ORGANIZATION_ASSIGNMENT ( #256, #44, ( #29 ) ) ;
#224 = CARTESIAN_POINT ( 'NONE',  ( 0.000000000000000000, 0.000000000000000000, 405.0000000000000000 ) ) ;
#225 = DIRECTION ( 'NONE',  ( 1.000000000000000000, 0.000000000000000000, 0.000000000000000000 ) ) ;
#226 = CIRCLE ( 'NONE', #67, 3.100000000000000089 ) ;
#227 = DIRECTION ( 'NONE',  ( -0.000000000000000000, -0.000000000000000000, -1.000000000000000000 ) ) ;
#228 = EDGE_CURVE ( 'NONE', #253, #55, #226, .T. ) ;
#229 = APPLICATION_PROTOCOL_DEFINITION ( 'international standard', 'config_control_design', 1994, #41 ) ;
#230 =( LENGTH_UNIT ( ) NAMED_UNIT ( * ) SI_UNIT ( .MILLI., .METRE. ) );
#231 = ORIENTED_EDGE ( 'NONE', *, *, #202, .F. ) ;
#232 = DATE_AND_TIME ( #207, #37 ) ;
#233 = LOCAL_TIME ( 14, 39, 56.00000000000000000, #206 ) ;
#234 = ORIENTED_EDGE ( 'NONE', *, *, #211, .F. ) ;
#235 = CALENDAR_DATE ( 2022, 7, 7 ) ;
#236 = ORIENTED_EDGE ( 'NONE', *, *, #48, .T. ) ;
#237 = MANIFOLD_SOLID_BREP ( 'Zaoblit1', #91 ) ;
#238 = APPROVAL ( #162, 'NEURÈENÝ' ) ;
#239 = AXIS2_PLACEMENT_3D ( 'NONE', #251, #65, #276 ) ;
#240 = PLANE ( 'NONE',  #169 ) ;
#241 = CARTESIAN_POINT ( 'NONE',  ( 0.000000000000000000, 0.000000000000000000, 405.0000000000000000 ) ) ;
#242 = DIRECTION ( 'NONE',  ( 1.000000000000000000, 0.000000000000000000, 0.000000000000000000 ) ) ;
#243 =( GEOMETRIC_REPRESENTATION_CONTEXT ( 3 ) GLOBAL_UNCERTAINTY_ASSIGNED_CONTEXT ( ( #13 ) ) GLOBAL_UNIT_ASSIGNED_CONTEXT ( ( #230, #2, #69 ) ) REPRESENTATION_CONTEXT ( 'NONE', 'WORKASPACE' ) );
#244 = ORIENTED_EDGE ( 'NONE', *, *, #159, .F. ) ;
#245 = DIRECTION ( 'NONE',  ( 1.000000000000000000, 0.000000000000000000, 0.000000000000000000 ) ) ;
#246 = FACE_BOUND ( 'NONE', #45, .T. ) ;
#247 = AXIS2_PLACEMENT_3D ( 'NONE', #152, #296, #124 ) ;
#248 = CARTESIAN_POINT ( 'NONE',  ( 0.000000000000000000, 0.000000000000000000, 5.000000000000000000 ) ) ;
#249 = CARTESIAN_POINT ( 'NONE',  ( 3.100000000000000089, 3.796405077356794918E-16, 405.0000000000000000 ) ) ;
#250 = CIRCLE ( 'NONE', #112, 6.000000000000000888 ) ;
#251 = CARTESIAN_POINT ( 'NONE',  ( 0.000000000000000000, 0.000000000000000000, 405.0000000000000000 ) ) ;
#252 = DATE_AND_TIME ( #306, #285 ) ;
#253 = VERTEX_POINT ( 'NONE', #179 ) ;
#254 = APPROVAL_ROLE ( '' ) ;
#255 = EDGE_CURVE ( 'NONE', #55, #253, #3, .T. ) ;
#256 = PERSON_AND_ORGANIZATION ( #18, #209 ) ;
#257 = AXIS2_PLACEMENT_3D ( 'NONE', #34, #119, #30 ) ;
#258 = CC_DESIGN_SECURITY_CLASSIFICATION ( #74, ( #42 ) ) ;
#259 = COORDINATED_UNIVERSAL_TIME_OFFSET ( 1, 0, .AHEAD. ) ;
#260 = DATE_AND_TIME ( #26, #215 ) ;
#261 = ORIENTED_EDGE ( 'NONE', *, *, #25, .F. ) ;
#262 = DIRECTION ( 'NONE',  ( -1.000000000000000000, 0.000000000000000000, 0.000000000000000000 ) ) ;
#263 = AXIS2_PLACEMENT_3D ( 'NONE', #194, #291, #56 ) ;
#264 = CARTESIAN_POINT ( 'NONE',  ( -3.299999999999999822, 4.041334437186265510E-16, 4.999999999999991118 ) ) ;
#265 = DIRECTION ( 'NONE',  ( -0.000000000000000000, -0.000000000000000000, -1.000000000000000000 ) ) ;
#266 = FACE_OUTER_BOUND ( 'NONE', #115, .T. ) ;
#267 = CC_DESIGN_APPROVAL ( #238, ( #29 ) ) ;
#268 = ADVANCED_BREP_SHAPE_REPRESENTATION ( '7182', ( #237, #108 ), #243 ) ;
#269 = VERTEX_POINT ( 'NONE', #39 ) ;
#270 = EDGE_CURVE ( 'NONE', #253, #93, #105, .T. ) ;
#271 = FACE_OUTER_BOUND ( 'NONE', #278, .T. ) ;
#272 = VECTOR ( 'NONE', #129, 1000.000000000000000 ) ;
#273 = PLANE ( 'NONE',  #165 ) ;
#274 = CARTESIAN_POINT ( 'NONE',  ( -6.000000000000000888, 0.000000000000000000, 0.000000000000000000 ) ) ;
#275 = ADVANCED_FACE ( 'NONE', ( #176 ), #72, .F. ) ;
#276 = DIRECTION ( 'NONE',  ( 1.000000000000000000, 0.000000000000000000, -0.000000000000000000 ) ) ;
#277 = DATE_TIME_ROLE ( 'classification_date' ) ;
#278 = EDGE_LOOP ( 'NONE', ( #288, #6, #141, #123 ) ) ;
#279 = PERSON_AND_ORGANIZATION ( #18, #209 ) ;
#280 = EDGE_CURVE ( 'NONE', #281, #283, #15, .T. ) ;
#281 = VERTEX_POINT ( 'NONE', #297 ) ;
#282 = DIRECTION ( 'NONE',  ( 0.000000000000000000, 0.000000000000000000, 1.000000000000000000 ) ) ;
#283 = VERTEX_POINT ( 'NONE', #274 ) ;
#284 = APPROVAL_STATUS ( 'not_yet_approved' ) ;
#285 = LOCAL_TIME ( 14, 39, 56.00000000000000000, #46 ) ;
#286 = EDGE_CURVE ( 'NONE', #55, #269, #86, .T. ) ;
#287 = ORIENTED_EDGE ( 'NONE', *, *, #25, .T. ) ;
#288 = ORIENTED_EDGE ( 'NONE', *, *, #228, .F. ) ;
#289 = CARTESIAN_POINT ( 'NONE',  ( 0.000000000000000000, 0.000000000000000000, 5.000000000000000000 ) ) ;
#290 = AXIS2_PLACEMENT_3D ( 'NONE', #224, #14, #84 ) ;
#291 = DIRECTION ( 'NONE',  ( 0.000000000000000000, 0.000000000000000000, 1.000000000000000000 ) ) ;
#292 = DIRECTION ( 'NONE',  ( -1.000000000000000000, 1.224646799147353207E-16, 0.000000000000000000 ) ) ;
#293 = CARTESIAN_POINT ( 'NONE',  ( 3.100000000000000089, 3.796405077356794918E-16, 5.199999999999982414 ) ) ;
#294 = CIRCLE ( 'NONE', #27, 6.000000000000000888 ) ;
#295 = ADVANCED_FACE ( 'NONE', ( #298 ), #58, .F. ) ;
#296 = DIRECTION ( 'NONE',  ( 0.000000000000000000, 0.000000000000000000, 1.000000000000000000 ) ) ;
#297 = CARTESIAN_POINT ( 'NONE',  ( -6.000000000000000888, 0.000000000000000000, 5.000000000000000000 ) ) ;
#298 = FACE_OUTER_BOUND ( 'NONE', #136, .T. ) ;
#299 = AXIS2_PLACEMENT_3D ( 'NONE', #199, #66, #11 ) ;
#300 = CARTESIAN_POINT ( 'NONE',  ( 6.000000000000000888, 7.347880794884120722E-16, 5.000000000000000000 ) ) ;
#301 = APPROVAL ( #284, 'NEURÈENÝ' ) ;
#302 = CYLINDRICAL_SURFACE ( 'NONE', #299, 3.100000000000000089 ) ;
#303 = CALENDAR_DATE ( 2022, 7, 7 ) ;
#304 = PERSON_AND_ORGANIZATION ( #18, #209 ) ;
#305 = EDGE_LOOP ( 'NONE', ( #31, #160 ) ) ;
#306 = CALENDAR_DATE ( 2022, 7, 7 ) ;
#307 = ORIENTED_EDGE ( 'NONE', *, *, #62, .F. ) ;
ENDSEC;
END-ISO-10303-21;
