ISO-10303-21;
HEADER;
FILE_DESCRIPTION (( 'STEP AP203' ),
    '1' );
FILE_NAME ('8d45.STEP',
    '2022-07-07T12:54:28',
    ( '' ),
    ( '' ),
    'SwSTEP 2.0',
    'SolidWorks 2019',
    '' );
FILE_SCHEMA (( 'CONFIG_CONTROL_DESIGN' ));
ENDSEC;

DATA;
#1 = EDGE_CURVE ( 'NONE', #12, #279, #54, .T. ) ;
#2 = DIRECTION ( 'NONE',  ( 0.000000000000000000, 0.000000000000000000, 1.000000000000000000 ) ) ;
#3 = DIRECTION ( 'NONE',  ( 1.000000000000000000, 0.000000000000000000, 0.000000000000000000 ) ) ;
#4 = EDGE_CURVE ( 'NONE', #303, #91, #297, .T. ) ;
#5 = CARTESIAN_POINT ( 'NONE',  ( 3.000000000000000444, 3.673940397442060361E-16, 3.000000000000000000 ) ) ;
#6 =( NAMED_UNIT ( * ) PLANE_ANGLE_UNIT ( ) SI_UNIT ( $, .RADIAN. ) );
#7 = EDGE_CURVE ( 'NONE', #133, #159, #164, .T. ) ;
#8 = EDGE_LOOP ( 'NONE', ( #92, #63 ) ) ;
#9 = AXIS2_PLACEMENT_3D ( 'NONE', #191, #168, #3 ) ;
#10 = ORIENTED_EDGE ( 'NONE', *, *, #47, .T. ) ;
#11 = COORDINATED_UNIVERSAL_TIME_OFFSET ( 1, 0, .AHEAD. ) ;
#12 = VERTEX_POINT ( 'NONE', #280 ) ;
#13 = PERSON ( 'NEURÈENÝ', 'NEURÈENÝ', 'NEURÈENÝ', ('NEURÈENÝ'), ('NEURÈENÝ'), ('NEURÈENÝ') ) ;
#14 = ORIENTED_EDGE ( 'NONE', *, *, #271, .F. ) ;
#15 = LOCAL_TIME ( 14, 54, 28.00000000000000000, #153 ) ;
#16 = EDGE_LOOP ( 'NONE', ( #302, #89, #298, #105 ) ) ;
#17 = CARTESIAN_POINT ( 'NONE',  ( 0.000000000000000000, 0.000000000000000000, 3.199999999999994404 ) ) ;
#18 = DIRECTION ( 'NONE',  ( 1.000000000000000000, 0.000000000000000000, 0.000000000000000000 ) ) ;
#19 = EDGE_CURVE ( 'NONE', #270, #227, #283, .T. ) ;
#20 = CARTESIAN_POINT ( 'NONE',  ( 0.000000000000000000, 0.000000000000000000, 3.000000000000000000 ) ) ;
#21 = CARTESIAN_POINT ( 'NONE',  ( 1.600000000000000089, 1.959434878635765230E-16, 103.0000000000000142 ) ) ;
#22 = ADVANCED_FACE ( 'NONE', ( #181 ), #139, .T. ) ;
#23 = CARTESIAN_POINT ( 'NONE',  ( 1.800000000000000266, 0.000000000000000000, 2.999999999999997335 ) ) ;
#24 = PRODUCT_DEFINITION_SHAPE ( 'NONE', 'NONE',  #55 ) ;
#25 = FACE_OUTER_BOUND ( 'NONE', #252, .T. ) ;
#26 = DIRECTION ( 'NONE',  ( -1.000000000000000000, 0.000000000000000000, 0.000000000000000000 ) ) ;
#27 = CC_DESIGN_DATE_AND_TIME_ASSIGNMENT ( #223, #103, ( #75 ) ) ;
#28 = DIRECTION ( 'NONE',  ( 1.000000000000000000, 0.000000000000000000, -0.000000000000000000 ) ) ;
#29 = CARTESIAN_POINT ( 'NONE',  ( 0.000000000000000000, 0.000000000000000000, 0.000000000000000000 ) ) ;
#30 = TOROIDAL_SURFACE ( 'NONE', #203, 1.800000000000000266, 0.2000000000000000111 ) ;
#31 = APPROVAL_PERSON_ORGANIZATION ( #267, #114, #174 ) ;
#32 = PERSON_AND_ORGANIZATION ( #13, #177 ) ;
#33 = CALENDAR_DATE ( 2022, 7, 7 ) ;
#34 = PERSON_AND_ORGANIZATION ( #13, #177 ) ;
#35 = MANIFOLD_SOLID_BREP ( 'Zaoblit1', #278 ) ;
#36 = DIRECTION ( 'NONE',  ( 0.000000000000000000, 0.000000000000000000, 1.000000000000000000 ) ) ;
#37 = SHAPE_DEFINITION_REPRESENTATION ( #24, #143 ) ;
#38 = ORIENTED_EDGE ( 'NONE', *, *, #196, .T. ) ;
#39 = DIRECTION ( 'NONE',  ( 1.000000000000000000, 0.000000000000000000, 0.000000000000000000 ) ) ;
#40 = AXIS2_PLACEMENT_3D ( 'NONE', #166, #121, #74 ) ;
#41 = CC_DESIGN_APPROVAL ( #281, ( #75 ) ) ;
#42 = EDGE_LOOP ( 'NONE', ( #259, #250, #201, #14 ) ) ;
#43 = CARTESIAN_POINT ( 'NONE',  ( 0.000000000000000000, 0.000000000000000000, 103.0000000000000142 ) ) ;
#44 = DIRECTION ( 'NONE',  ( -0.000000000000000000, -0.000000000000000000, -1.000000000000000000 ) ) ;
#45 = DIRECTION ( 'NONE',  ( -1.000000000000000000, 1.224646799147354686E-16, 0.000000000000000000 ) ) ;
#46 = LOCAL_TIME ( 14, 54, 28.00000000000000000, #152 ) ;
#47 = EDGE_CURVE ( 'NONE', #91, #159, #68, .T. ) ;
#48 = DIRECTION ( 'NONE',  ( 1.000000000000000000, 0.000000000000000000, 0.000000000000000000 ) ) ;
#49 = CARTESIAN_POINT ( 'NONE',  ( -1.600000000000000089, 0.000000000000000000, 3.199999999999994404 ) ) ;
#50 = CIRCLE ( 'NONE', #187, 0.2000000000000000944 ) ;
#51 = CC_DESIGN_SECURITY_CLASSIFICATION ( #75, ( #98 ) ) ;
#52 = FACE_OUTER_BOUND ( 'NONE', #102, .T. ) ;
#53 = DIRECTION ( 'NONE',  ( 0.000000000000000000, 0.000000000000000000, -1.000000000000000000 ) ) ;
#54 = CIRCLE ( 'NONE', #257, 3.000000000000000444 ) ;
#55 = PRODUCT_DEFINITION ( 'NEZNÁMÝ', '', #98, #76 ) ;
#56 = APPROVAL_DATE_TIME ( #61, #114 ) ;
#57 = AXIS2_PLACEMENT_3D ( 'NONE', #117, #211, #128 ) ;
#58 = ORIENTED_EDGE ( 'NONE', *, *, #266, .F. ) ;
#59 = CIRCLE ( 'NONE', #57, 3.000000000000000444 ) ;
#60 = EDGE_CURVE ( 'NONE', #159, #133, #216, .T. ) ;
#61 = DATE_AND_TIME ( #269, #150 ) ;
#62 = PRODUCT_RELATED_PRODUCT_CATEGORY ( 'detail', '', ( #241 ) ) ;
#63 = ORIENTED_EDGE ( 'NONE', *, *, #19, .T. ) ;
#64 = AXIS2_PLACEMENT_3D ( 'NONE', #29, #36, #104 ) ;
#65 = LINE ( 'NONE', #137, #171 ) ;
#66 = ADVANCED_FACE ( 'NONE', ( #69 ), #206, .T. ) ;
#67 = DIRECTION ( 'NONE',  ( 1.000000000000000000, 0.000000000000000000, 0.000000000000000000 ) ) ;
#68 = LINE ( 'NONE', #140, #190 ) ;
#69 = FACE_OUTER_BOUND ( 'NONE', #268, .T. ) ;
#70 = DIRECTION ( 'NONE',  ( 1.224646799147353207E-16, 1.000000000000000000, -0.000000000000000000 ) ) ;
#71 = CYLINDRICAL_SURFACE ( 'NONE', #40, 1.600000000000000089 ) ;
#72 = DIRECTION ( 'NONE',  ( 0.000000000000000000, 0.000000000000000000, 1.000000000000000000 ) ) ;
#73 = CARTESIAN_POINT ( 'NONE',  ( -3.000000000000000444, 0.000000000000000000, 3.000000000000000000 ) ) ;
#74 = DIRECTION ( 'NONE',  ( -1.000000000000000000, 0.000000000000000000, 0.000000000000000000 ) ) ;
#75 = SECURITY_CLASSIFICATION ( '', '', #219 ) ;
#76 = DESIGN_CONTEXT ( 'detailed design', #144, 'design' ) ;
#77 = CARTESIAN_POINT ( 'NONE',  ( 1.800000000000000266, 0.000000000000000000, 3.199999999999994404 ) ) ;
#78 = MECHANICAL_CONTEXT ( 'NONE', #127, 'mechanical' ) ;
#79 = EDGE_CURVE ( 'NONE', #91, #303, #180, .T. ) ;
#80 = CALENDAR_DATE ( 2022, 7, 7 ) ;
#81 = ORIENTED_EDGE ( 'NONE', *, *, #1, .F. ) ;
#82 = AXIS2_PLACEMENT_3D ( 'NONE', #214, #2, #48 ) ;
#83 = CC_DESIGN_PERSON_AND_ORGANIZATION_ASSIGNMENT ( #32, #243, ( #98 ) ) ;
#84 = PERSON_AND_ORGANIZATION_ROLE ( 'design_owner' ) ;
#85 = COORDINATED_UNIVERSAL_TIME_OFFSET ( 1, 0, .AHEAD. ) ;
#86 = CIRCLE ( 'NONE', #9, 1.800000000000000266 ) ;
#87 = CARTESIAN_POINT ( 'NONE',  ( 0.000000000000000000, 0.000000000000000000, 103.0000000000000142 ) ) ;
#88 = DIRECTION ( 'NONE',  ( -0.000000000000000000, -0.000000000000000000, -1.000000000000000000 ) ) ;
#89 = ORIENTED_EDGE ( 'NONE', *, *, #7, .F. ) ;
#90 = AXIS2_PLACEMENT_3D ( 'NONE', #93, #306, #95 ) ;
#91 = VERTEX_POINT ( 'NONE', #210 ) ;
#92 = ORIENTED_EDGE ( 'NONE', *, *, #266, .T. ) ;
#93 = CARTESIAN_POINT ( 'NONE',  ( 0.000000000000000000, 0.000000000000000000, 3.000000000000000000 ) ) ;
#94 = CARTESIAN_POINT ( 'NONE',  ( 0.000000000000000000, 0.000000000000000000, 3.000000000000000000 ) ) ;
#95 = DIRECTION ( 'NONE',  ( -1.000000000000000000, 0.000000000000000000, 0.000000000000000000 ) ) ;
#96 = CARTESIAN_POINT ( 'NONE',  ( -3.000000000000000444, 0.000000000000000000, 3.000000000000000000 ) ) ;
#97 = CARTESIAN_POINT ( 'NONE',  ( -1.800000000000000266, 2.204364238465236069E-16, 2.999999999999997335 ) ) ;
#98 = PRODUCT_DEFINITION_FORMATION_WITH_SPECIFIED_SOURCE ( 'LIBOVOLNÝ', '', #241, .NOT_KNOWN. ) ;
#99 =( NAMED_UNIT ( * ) SI_UNIT ( $, .STERADIAN. ) SOLID_ANGLE_UNIT ( ) );
#100 = PERSON_AND_ORGANIZATION_ROLE ( 'classification_officer' ) ;
#101 = AXIS2_PLACEMENT_3D ( 'NONE', #43, #232, #202 ) ;
#102 = EDGE_LOOP ( 'NONE', ( #155, #58, #185, #229 ) ) ;
#103 = DATE_TIME_ROLE ( 'classification_date' ) ;
#104 = DIRECTION ( 'NONE',  ( 1.000000000000000000, 0.000000000000000000, 0.000000000000000000 ) ) ;
#105 = ORIENTED_EDGE ( 'NONE', *, *, #196, .F. ) ;
#106 = AXIS2_PLACEMENT_3D ( 'NONE', #162, #284, #18 ) ;
#107 = EDGE_CURVE ( 'NONE', #159, #198, #135, .T. ) ;
#108 = EDGE_CURVE ( 'NONE', #270, #279, #65, .T. ) ;
#109 = EDGE_LOOP ( 'NONE', ( #81, #193 ) ) ;
#110 = DIRECTION ( 'NONE',  ( 0.000000000000000000, 0.000000000000000000, 1.000000000000000000 ) ) ;
#111 = DIRECTION ( 'NONE',  ( 0.000000000000000000, 0.000000000000000000, 1.000000000000000000 ) ) ;
#112 = ORIENTED_EDGE ( 'NONE', *, *, #208, .T. ) ;
#113 = CC_DESIGN_PERSON_AND_ORGANIZATION_ASSIGNMENT ( #173, #100, ( #75 ) ) ;
#114 = APPROVAL ( #273, 'NEURÈENÝ' ) ;
#115 = CC_DESIGN_APPROVAL ( #183, ( #98 ) ) ;
#116 = DIRECTION ( 'NONE',  ( 0.000000000000000000, 0.000000000000000000, 1.000000000000000000 ) ) ;
#117 = CARTESIAN_POINT ( 'NONE',  ( 0.000000000000000000, 0.000000000000000000, 0.000000000000000000 ) ) ;
#118 = FACE_BOUND ( 'NONE', #300, .T. ) ;
#119 = CC_DESIGN_DATE_AND_TIME_ASSIGNMENT ( #154, #220, ( #55 ) ) ;
#120 = DIRECTION ( 'NONE',  ( 1.000000000000000000, 0.000000000000000000, 0.000000000000000000 ) ) ;
#121 = DIRECTION ( 'NONE',  ( -0.000000000000000000, -0.000000000000000000, -1.000000000000000000 ) ) ;
#122 = FACE_OUTER_BOUND ( 'NONE', #195, .T. ) ;
#123 = PERSON_AND_ORGANIZATION ( #13, #177 ) ;
#124 = AXIS2_PLACEMENT_3D ( 'NONE', #94, #289, #28 ) ;
#125 = ADVANCED_FACE ( 'NONE', ( #52 ), #305, .T. ) ;
#126 = PERSON_AND_ORGANIZATION_ROLE ( 'creator' ) ;
#127 = APPLICATION_CONTEXT ( 'configuration controlled 3d designs of mechanical parts and assemblies' ) ;
#128 = DIRECTION ( 'NONE',  ( 1.000000000000000000, 0.000000000000000000, 0.000000000000000000 ) ) ;
#129 = EDGE_LOOP ( 'NONE', ( #245, #163 ) ) ;
#130 = ADVANCED_FACE ( 'NONE', ( #122 ), #71, .T. ) ;
#131 = AXIS2_PLACEMENT_3D ( 'NONE', #286, #240, #26 ) ;
#132 = APPROVAL_STATUS ( 'not_yet_approved' ) ;
#133 = VERTEX_POINT ( 'NONE', #262 ) ;
#134 = AXIS2_PLACEMENT_3D ( 'NONE', #20, #110, #234 ) ;
#135 = CIRCLE ( 'NONE', #207, 0.1999999999999998723 ) ;
#136 = ADVANCED_FACE ( 'NONE', ( #260 ), #287, .F. ) ;
#137 = CARTESIAN_POINT ( 'NONE',  ( 3.000000000000000444, 3.673940397442060361E-16, 3.000000000000000000 ) ) ;
#138 = UNCERTAINTY_MEASURE_WITH_UNIT (LENGTH_MEASURE( 1.000000000000000082E-05 ), #292, 'distance_accuracy_value', 'NONE');
#139 = PLANE ( 'NONE',  #101 ) ;
#140 = CARTESIAN_POINT ( 'NONE',  ( -1.600000000000000089, 0.000000000000000000, 103.0000000000000142 ) ) ;
#141 = CC_DESIGN_PERSON_AND_ORGANIZATION_ASSIGNMENT ( #34, #84, ( #241 ) ) ;
#142 = CARTESIAN_POINT ( 'NONE',  ( 0.000000000000000000, 0.000000000000000000, 103.0000000000000142 ) ) ;
#143 = ADVANCED_BREP_SHAPE_REPRESENTATION ( '8d45', ( #35, #64 ), #235 ) ;
#144 = APPLICATION_CONTEXT ( 'configuration controlled 3d designs of mechanical parts and assemblies' ) ;
#145 = DIRECTION ( 'NONE',  ( -0.000000000000000000, -0.000000000000000000, -1.000000000000000000 ) ) ;
#146 = DIRECTION ( 'NONE',  ( 1.000000000000000000, 0.000000000000000000, 0.000000000000000000 ) ) ;
#147 = PLANE ( 'NONE',  #124 ) ;
#148 = CARTESIAN_POINT ( 'NONE',  ( 0.000000000000000000, 0.000000000000000000, 3.199999999999994404 ) ) ;
#149 = CALENDAR_DATE ( 2022, 7, 7 ) ;
#150 = LOCAL_TIME ( 14, 54, 28.00000000000000000, #85 ) ;
#151 = ORIENTED_EDGE ( 'NONE', *, *, #7, .T. ) ;
#152 = COORDINATED_UNIVERSAL_TIME_OFFSET ( 1, 0, .AHEAD. ) ;
#153 = COORDINATED_UNIVERSAL_TIME_OFFSET ( 1, 0, .AHEAD. ) ;
#154 = DATE_AND_TIME ( #33, #46 ) ;
#155 = ORIENTED_EDGE ( 'NONE', *, *, #108, .F. ) ;
#156 = APPROVAL_DATE_TIME ( #251, #281 ) ;
#157 = ORIENTED_EDGE ( 'NONE', *, *, #296, .F. ) ;
#158 = VERTEX_POINT ( 'NONE', #23 ) ;
#159 = VERTEX_POINT ( 'NONE', #49 ) ;
#160 = VECTOR ( 'NONE', #145, 1000.000000000000000 ) ;
#161 = LOCAL_TIME ( 14, 54, 28.00000000000000000, #11 ) ;
#162 = CARTESIAN_POINT ( 'NONE',  ( 0.000000000000000000, 0.000000000000000000, 3.199999999999994404 ) ) ;
#163 = ORIENTED_EDGE ( 'NONE', *, *, #4, .T. ) ;
#164 = CIRCLE ( 'NONE', #106, 1.600000000000000089 ) ;
#165 = ORIENTED_EDGE ( 'NONE', *, *, #4, .F. ) ;
#166 = CARTESIAN_POINT ( 'NONE',  ( 0.000000000000000000, 0.000000000000000000, 103.0000000000000142 ) ) ;
#167 = DIRECTION ( 'NONE',  ( 0.000000000000000000, 0.000000000000000000, 1.000000000000000000 ) ) ;
#168 = DIRECTION ( 'NONE',  ( -0.000000000000000000, -0.000000000000000000, -1.000000000000000000 ) ) ;
#169 = CARTESIAN_POINT ( 'NONE',  ( 0.000000000000000000, 0.000000000000000000, 0.000000000000000000 ) ) ;
#170 = LINE ( 'NONE', #238, #255 ) ;
#171 = VECTOR ( 'NONE', #231, 1000.000000000000000 ) ;
#172 = TOROIDAL_SURFACE ( 'NONE', #299, 1.800000000000000266, 0.2000000000000000111 ) ;
#173 = PERSON_AND_ORGANIZATION ( #13, #177 ) ;
#174 = APPROVAL_ROLE ( '' ) ;
#175 = PERSON_AND_ORGANIZATION ( #13, #177 ) ;
#176 = CIRCLE ( 'NONE', #218, 1.800000000000000266 ) ;
#177 = ORGANIZATION ( 'NEURÈENÝ', 'NEURÈENÝ', '' ) ;
#178 = DIRECTION ( 'NONE',  ( -1.000000000000000000, 0.000000000000000000, 0.000000000000000000 ) ) ;
#179 = DIRECTION ( 'NONE',  ( 0.000000000000000000, 0.000000000000000000, 1.000000000000000000 ) ) ;
#180 = CIRCLE ( 'NONE', #222, 1.600000000000000089 ) ;
#181 = FACE_OUTER_BOUND ( 'NONE', #129, .T. ) ;
#182 = AXIS2_PLACEMENT_3D ( 'NONE', #169, #72, #265 ) ;
#183 = APPROVAL ( #132, 'NEURÈENÝ' ) ;
#184 = DIRECTION ( 'NONE',  ( 0.000000000000000000, 0.000000000000000000, 1.000000000000000000 ) ) ;
#185 = ORIENTED_EDGE ( 'NONE', *, *, #271, .T. ) ;
#186 = CYLINDRICAL_SURFACE ( 'NONE', #131, 3.000000000000000444 ) ;
#187 = AXIS2_PLACEMENT_3D ( 'NONE', #77, #237, #53 ) ;
#188 = FACE_OUTER_BOUND ( 'NONE', #16, .T. ) ;
#189 = LINE ( 'NONE', #73, #160 ) ;
#190 = VECTOR ( 'NONE', #88, 1000.000000000000000 ) ;
#191 = CARTESIAN_POINT ( 'NONE',  ( 0.000000000000000000, 0.000000000000000000, 3.000000000000000000 ) ) ;
#192 = FACE_OUTER_BOUND ( 'NONE', #42, .T. ) ;
#193 = ORIENTED_EDGE ( 'NONE', *, *, #307, .F. ) ;
#194 = COORDINATED_UNIVERSAL_TIME_OFFSET ( 1, 0, .AHEAD. ) ;
#195 = EDGE_LOOP ( 'NONE', ( #165, #233, #151, #258 ) ) ;
#196 = EDGE_CURVE ( 'NONE', #198, #158, #176, .T. ) ;
#197 = PERSON_AND_ORGANIZATION ( #13, #177 ) ;
#198 = VERTEX_POINT ( 'NONE', #97 ) ;
#199 = AXIS2_PLACEMENT_3D ( 'NONE', #254, #179, #282 ) ;
#200 = DATE_AND_TIME ( #149, #161 ) ;
#201 = ORIENTED_EDGE ( 'NONE', *, *, #307, .T. ) ;
#202 = DIRECTION ( 'NONE',  ( 1.000000000000000000, 0.000000000000000000, -0.000000000000000000 ) ) ;
#203 = AXIS2_PLACEMENT_3D ( 'NONE', #148, #217, #120 ) ;
#204 = CC_DESIGN_APPROVAL ( #114, ( #55 ) ) ;
#205 = ORIENTED_EDGE ( 'NONE', *, *, #208, .F. ) ;
#206 = CYLINDRICAL_SURFACE ( 'NONE', #293, 1.600000000000000089 ) ;
#207 = AXIS2_PLACEMENT_3D ( 'NONE', #304, #70, #45 ) ;
#208 = EDGE_CURVE ( 'NONE', #158, #198, #86, .T. ) ;
#209 = ORIENTED_EDGE ( 'NONE', *, *, #79, .F. ) ;
#210 = CARTESIAN_POINT ( 'NONE',  ( -1.600000000000000089, 0.000000000000000000, 103.0000000000000142 ) ) ;
#211 = DIRECTION ( 'NONE',  ( 0.000000000000000000, 0.000000000000000000, 1.000000000000000000 ) ) ;
#212 = DIRECTION ( 'NONE',  ( 1.000000000000000000, 0.000000000000000000, 0.000000000000000000 ) ) ;
#213 = CIRCLE ( 'NONE', #82, 3.000000000000000444 ) ;
#214 = CARTESIAN_POINT ( 'NONE',  ( 0.000000000000000000, 0.000000000000000000, 3.000000000000000000 ) ) ;
#215 = CARTESIAN_POINT ( 'NONE',  ( 0.000000000000000000, 0.000000000000000000, 3.000000000000000000 ) ) ;
#216 = CIRCLE ( 'NONE', #285, 1.600000000000000089 ) ;
#217 = DIRECTION ( 'NONE',  ( 0.000000000000000000, 0.000000000000000000, 1.000000000000000000 ) ) ;
#218 = AXIS2_PLACEMENT_3D ( 'NONE', #215, #264, #212 ) ;
#219 = SECURITY_CLASSIFICATION_LEVEL ( 'unclassified' ) ;
#220 = DATE_TIME_ROLE ( 'creation_date' ) ;
#221 = ORIENTED_EDGE ( 'NONE', *, *, #107, .T. ) ;
#222 = AXIS2_PLACEMENT_3D ( 'NONE', #142, #116, #277 ) ;
#223 = DATE_AND_TIME ( #80, #275 ) ;
#224 = EDGE_CURVE ( 'NONE', #303, #133, #170, .T. ) ;
#225 = APPLICATION_PROTOCOL_DEFINITION ( 'international standard', 'config_control_design', 1994, #144 ) ;
#226 = APPROVAL_ROLE ( '' ) ;
#227 = VERTEX_POINT ( 'NONE', #96 ) ;
#228 = ADVANCED_FACE ( 'NONE', ( #118, #261 ), #147, .T. ) ;
#229 = ORIENTED_EDGE ( 'NONE', *, *, #1, .T. ) ;
#230 = APPROVAL_PERSON_ORGANIZATION ( #249, #183, #226 ) ;
#231 = DIRECTION ( 'NONE',  ( -0.000000000000000000, -0.000000000000000000, -1.000000000000000000 ) ) ;
#232 = DIRECTION ( 'NONE',  ( 0.000000000000000000, 0.000000000000000000, 1.000000000000000000 ) ) ;
#233 = ORIENTED_EDGE ( 'NONE', *, *, #224, .T. ) ;
#234 = DIRECTION ( 'NONE',  ( 1.000000000000000000, 0.000000000000000000, 0.000000000000000000 ) ) ;
#235 =( GEOMETRIC_REPRESENTATION_CONTEXT ( 3 ) GLOBAL_UNCERTAINTY_ASSIGNED_CONTEXT ( ( #138 ) ) GLOBAL_UNIT_ASSIGNED_CONTEXT ( ( #292, #6, #99 ) ) REPRESENTATION_CONTEXT ( 'NONE', 'WORKASPACE' ) );
#236 = ADVANCED_FACE ( 'NONE', ( #188 ), #172, .F. ) ;
#237 = DIRECTION ( 'NONE',  ( 0.000000000000000000, -1.000000000000000000, 0.000000000000000000 ) ) ;
#238 = CARTESIAN_POINT ( 'NONE',  ( 1.600000000000000089, 1.959434878635765230E-16, 103.0000000000000142 ) ) ;
#239 = CC_DESIGN_PERSON_AND_ORGANIZATION_ASSIGNMENT ( #123, #246, ( #55 ) ) ;
#240 = DIRECTION ( 'NONE',  ( -0.000000000000000000, -0.000000000000000000, -1.000000000000000000 ) ) ;
#241 = PRODUCT ( '8d45', '8d45', '', ( #78 ) ) ;
#242 = CARTESIAN_POINT ( 'NONE',  ( 0.000000000000000000, 0.000000000000000000, 3.199999999999994404 ) ) ;
#243 = PERSON_AND_ORGANIZATION_ROLE ( 'design_supplier' ) ;
#244 = APPROVAL_DATE_TIME ( #200, #183 ) ;
#245 = ORIENTED_EDGE ( 'NONE', *, *, #79, .T. ) ;
#246 = PERSON_AND_ORGANIZATION_ROLE ( 'creator' ) ;
#247 = CALENDAR_DATE ( 2022, 7, 7 ) ;
#248 = CC_DESIGN_PERSON_AND_ORGANIZATION_ASSIGNMENT ( #175, #126, ( #98 ) ) ;
#249 = PERSON_AND_ORGANIZATION ( #13, #177 ) ;
#250 = ORIENTED_EDGE ( 'NONE', *, *, #108, .T. ) ;
#251 = DATE_AND_TIME ( #247, #15 ) ;
#252 = EDGE_LOOP ( 'NONE', ( #301, #221, #205, #157 ) ) ;
#253 = ORIENTED_EDGE ( 'NONE', *, *, #224, .F. ) ;
#254 = CARTESIAN_POINT ( 'NONE',  ( 0.000000000000000000, 0.000000000000000000, 103.0000000000000142 ) ) ;
#255 = VECTOR ( 'NONE', #288, 1000.000000000000000 ) ;
#256 = CARTESIAN_POINT ( 'NONE',  ( 0.000000000000000000, 0.000000000000000000, 0.000000000000000000 ) ) ;
#257 = AXIS2_PLACEMENT_3D ( 'NONE', #256, #184, #67 ) ;
#258 = ORIENTED_EDGE ( 'NONE', *, *, #47, .F. ) ;
#259 = ORIENTED_EDGE ( 'NONE', *, *, #19, .F. ) ;
#260 = FACE_OUTER_BOUND ( 'NONE', #109, .T. ) ;
#261 = FACE_OUTER_BOUND ( 'NONE', #8, .T. ) ;
#262 = CARTESIAN_POINT ( 'NONE',  ( 1.600000000000000089, 1.959434878635765230E-16, 3.199999999999994404 ) ) ;
#263 = ADVANCED_FACE ( 'NONE', ( #25 ), #30, .F. ) ;
#264 = DIRECTION ( 'NONE',  ( -0.000000000000000000, -0.000000000000000000, -1.000000000000000000 ) ) ;
#265 = DIRECTION ( 'NONE',  ( 1.000000000000000000, 0.000000000000000000, -0.000000000000000000 ) ) ;
#266 = EDGE_CURVE ( 'NONE', #227, #270, #213, .T. ) ;
#267 = PERSON_AND_ORGANIZATION ( #13, #177 ) ;
#268 = EDGE_LOOP ( 'NONE', ( #253, #209, #10, #295 ) ) ;
#269 = CALENDAR_DATE ( 2022, 7, 7 ) ;
#270 = VERTEX_POINT ( 'NONE', #5 ) ;
#271 = EDGE_CURVE ( 'NONE', #227, #12, #189, .T. ) ;
#272 = APPROVAL_ROLE ( '' ) ;
#273 = APPROVAL_STATUS ( 'not_yet_approved' ) ;
#274 = APPLICATION_PROTOCOL_DEFINITION ( 'international standard', 'config_control_design', 1994, #127 ) ;
#275 = LOCAL_TIME ( 14, 54, 28.00000000000000000, #194 ) ;
#276 = ADVANCED_FACE ( 'NONE', ( #192 ), #186, .T. ) ;
#277 = DIRECTION ( 'NONE',  ( 1.000000000000000000, 0.000000000000000000, 0.000000000000000000 ) ) ;
#278 = CLOSED_SHELL ( 'NONE', ( #263, #130, #276, #125, #228, #136, #66, #22, #236 ) ) ;
#279 = VERTEX_POINT ( 'NONE', #291 ) ;
#280 = CARTESIAN_POINT ( 'NONE',  ( -3.000000000000000444, 0.000000000000000000, 0.000000000000000000 ) ) ;
#281 = APPROVAL ( #294, 'NEURÈENÝ' ) ;
#282 = DIRECTION ( 'NONE',  ( 1.000000000000000000, 0.000000000000000000, 0.000000000000000000 ) ) ;
#283 = CIRCLE ( 'NONE', #134, 3.000000000000000444 ) ;
#284 = DIRECTION ( 'NONE',  ( 0.000000000000000000, 0.000000000000000000, 1.000000000000000000 ) ) ;
#285 = AXIS2_PLACEMENT_3D ( 'NONE', #17, #111, #39 ) ;
#286 = CARTESIAN_POINT ( 'NONE',  ( 0.000000000000000000, 0.000000000000000000, 3.000000000000000000 ) ) ;
#287 = PLANE ( 'NONE',  #182 ) ;
#288 = DIRECTION ( 'NONE',  ( -0.000000000000000000, -0.000000000000000000, -1.000000000000000000 ) ) ;
#289 = DIRECTION ( 'NONE',  ( 0.000000000000000000, 0.000000000000000000, 1.000000000000000000 ) ) ;
#290 = APPROVAL_PERSON_ORGANIZATION ( #197, #281, #272 ) ;
#291 = CARTESIAN_POINT ( 'NONE',  ( 3.000000000000000444, 3.673940397442060361E-16, 0.000000000000000000 ) ) ;
#292 =( LENGTH_UNIT ( ) NAMED_UNIT ( * ) SI_UNIT ( .MILLI., .METRE. ) );
#293 = AXIS2_PLACEMENT_3D ( 'NONE', #87, #44, #178 ) ;
#294 = APPROVAL_STATUS ( 'not_yet_approved' ) ;
#295 = ORIENTED_EDGE ( 'NONE', *, *, #60, .T. ) ;
#296 = EDGE_CURVE ( 'NONE', #133, #158, #50, .T. ) ;
#297 = CIRCLE ( 'NONE', #199, 1.600000000000000089 ) ;
#298 = ORIENTED_EDGE ( 'NONE', *, *, #296, .T. ) ;
#299 = AXIS2_PLACEMENT_3D ( 'NONE', #242, #167, #146 ) ;
#300 = EDGE_LOOP ( 'NONE', ( #112, #38 ) ) ;
#301 = ORIENTED_EDGE ( 'NONE', *, *, #60, .F. ) ;
#302 = ORIENTED_EDGE ( 'NONE', *, *, #107, .F. ) ;
#303 = VERTEX_POINT ( 'NONE', #21 ) ;
#304 = CARTESIAN_POINT ( 'NONE',  ( -1.800000000000000266, 2.204364238465236069E-16, 3.199999999999994404 ) ) ;
#305 = CYLINDRICAL_SURFACE ( 'NONE', #90, 3.000000000000000444 ) ;
#306 = DIRECTION ( 'NONE',  ( -0.000000000000000000, -0.000000000000000000, -1.000000000000000000 ) ) ;
#307 = EDGE_CURVE ( 'NONE', #279, #12, #59, .T. ) ;
ENDSEC;
END-ISO-10303-21;
