ISO-10303-21;
HEADER;
FILE_DESCRIPTION (( 'STEP AP203' ),
    '1' );
FILE_NAME ('53b1.STEP',
    '2022-07-07T12:45:47',
    ( '' ),
    ( '' ),
    'SwSTEP 2.0',
    'SolidWorks 2019',
    '' );
FILE_SCHEMA (( 'CONFIG_CONTROL_DESIGN' ));
ENDSEC;

DATA;
#1 = APPROVAL_PERSON_ORGANIZATION ( #114, #213, #83 ) ;
#2 = AXIS2_PLACEMENT_3D ( 'NONE', #17, #119, #88 ) ;
#3 = AXIS2_PLACEMENT_3D ( 'NONE', #40, #20, #288 ) ;
#4 = DIRECTION ( 'NONE',  ( 0.000000000000000000, 0.000000000000000000, 1.000000000000000000 ) ) ;
#5 = VERTEX_POINT ( 'NONE', #296 ) ;
#6 = EDGE_LOOP ( 'NONE', ( #10, #230, #248, #205 ) ) ;
#7 = VERTEX_POINT ( 'NONE', #292 ) ;
#8 = ORIENTED_EDGE ( 'NONE', *, *, #66, .T. ) ;
#9 = DIRECTION ( 'NONE',  ( -1.000000000000000000, 0.000000000000000000, 0.000000000000000000 ) ) ;
#10 = ORIENTED_EDGE ( 'NONE', *, *, #222, .F. ) ;
#11 = DATE_AND_TIME ( #135, #241 ) ;
#12 = DIRECTION ( 'NONE',  ( 1.000000000000000000, 0.000000000000000000, 0.000000000000000000 ) ) ;
#13 = CARTESIAN_POINT ( 'NONE',  ( 0.000000000000000000, 0.000000000000000000, 0.000000000000000000 ) ) ;
#14 = PERSON_AND_ORGANIZATION_ROLE ( 'creator' ) ;
#15 = DIRECTION ( 'NONE',  ( -0.000000000000000000, -0.000000000000000000, -1.000000000000000000 ) ) ;
#16 = EDGE_CURVE ( 'NONE', #250, #203, #274, .T. ) ;
#17 = CARTESIAN_POINT ( 'NONE',  ( 0.000000000000000000, 0.000000000000000000, 3.199999999999994404 ) ) ;
#18 = FACE_OUTER_BOUND ( 'NONE', #129, .T. ) ;
#19 = DIRECTION ( 'NONE',  ( 1.000000000000000000, 0.000000000000000000, -0.000000000000000000 ) ) ;
#20 = DIRECTION ( 'NONE',  ( 0.000000000000000000, 0.000000000000000000, 1.000000000000000000 ) ) ;
#21 = EDGE_CURVE ( 'NONE', #25, #203, #126, .T. ) ;
#22 = VECTOR ( 'NONE', #15, 1000.000000000000000 ) ;
#23 = APPLICATION_CONTEXT ( 'configuration controlled 3d designs of mechanical parts and assemblies' ) ;
#24 = DIRECTION ( 'NONE',  ( 1.000000000000000000, 0.000000000000000000, -0.000000000000000000 ) ) ;
#25 = VERTEX_POINT ( 'NONE', #147 ) ;
#26 = EDGE_LOOP ( 'NONE', ( #110, #77, #180, #246 ) ) ;
#27 = PERSON_AND_ORGANIZATION ( #108, #99 ) ;
#28 = EDGE_LOOP ( 'NONE', ( #155, #244, #128, #181 ) ) ;
#29 = CARTESIAN_POINT ( 'NONE',  ( -2.600000000000000089, 0.000000000000000000, 103.0000000000000142 ) ) ;
#30 = EDGE_LOOP ( 'NONE', ( #48, #131 ) ) ;
#31 = CALENDAR_DATE ( 2022, 7, 7 ) ;
#32 = LOCAL_TIME ( 14, 45, 47.00000000000000000, #301 ) ;
#33 = CARTESIAN_POINT ( 'NONE',  ( 0.000000000000000000, 0.000000000000000000, 0.000000000000000000 ) ) ;
#34 = AXIS2_PLACEMENT_3D ( 'NONE', #190, #141, #215 ) ;
#35 = AXIS2_PLACEMENT_3D ( 'NONE', #198, #242, #24 ) ;
#36 = DIRECTION ( 'NONE',  ( 0.000000000000000000, 0.000000000000000000, 1.000000000000000000 ) ) ;
#37 = MECHANICAL_CONTEXT ( 'NONE', #101, 'mechanical' ) ;
#38 = DIRECTION ( 'NONE',  ( 1.000000000000000000, 0.000000000000000000, 0.000000000000000000 ) ) ;
#39 = DIRECTION ( 'NONE',  ( 0.000000000000000000, -1.000000000000000000, 0.000000000000000000 ) ) ;
#40 = CARTESIAN_POINT ( 'NONE',  ( 0.000000000000000000, 0.000000000000000000, 3.199999999999994404 ) ) ;
#41 = AXIS2_PLACEMENT_3D ( 'NONE', #73, #247, #297 ) ;
#42 = EDGE_CURVE ( 'NONE', #7, #5, #94, .T. ) ;
#43 = DIRECTION ( 'NONE',  ( 1.000000000000000000, 0.000000000000000000, 0.000000000000000000 ) ) ;
#44 = ORIENTED_EDGE ( 'NONE', *, *, #306, .F. ) ;
#45 = DIRECTION ( 'NONE',  ( 1.000000000000000000, 0.000000000000000000, 0.000000000000000000 ) ) ;
#46 = EDGE_LOOP ( 'NONE', ( #72, #276 ) ) ;
#47 = CALENDAR_DATE ( 2022, 7, 7 ) ;
#48 = ORIENTED_EDGE ( 'NONE', *, *, #125, .T. ) ;
#49 = VERTEX_POINT ( 'NONE', #305 ) ;
#50 = DIRECTION ( 'NONE',  ( 0.000000000000000000, 0.000000000000000000, 1.000000000000000000 ) ) ;
#51 = ORIENTED_EDGE ( 'NONE', *, *, #277, .F. ) ;
#52 = SHAPE_DEFINITION_REPRESENTATION ( #123, #238 ) ;
#53 = APPROVAL_PERSON_ORGANIZATION ( #295, #210, #275 ) ;
#54 = ORIENTED_EDGE ( 'NONE', *, *, #68, .T. ) ;
#55 = CALENDAR_DATE ( 2022, 7, 7 ) ;
#56 = TOROIDAL_SURFACE ( 'NONE', #2, 2.799999999999999822, 0.2000000000000000111 ) ;
#57 = APPROVAL ( #235, 'NEURÈENÝ' ) ;
#58 = DIRECTION ( 'NONE',  ( -0.000000000000000000, -0.000000000000000000, -1.000000000000000000 ) ) ;
#59 = COORDINATED_UNIVERSAL_TIME_OFFSET ( 1, 0, .AHEAD. ) ;
#60 = DIRECTION ( 'NONE',  ( 1.000000000000000000, 0.000000000000000000, 0.000000000000000000 ) ) ;
#61 = DIRECTION ( 'NONE',  ( 1.000000000000000000, 0.000000000000000000, -0.000000000000000000 ) ) ;
#62 = DIRECTION ( 'NONE',  ( -0.000000000000000000, -0.000000000000000000, -1.000000000000000000 ) ) ;
#63 = AXIS2_PLACEMENT_3D ( 'NONE', #13, #36, #164 ) ;
#64 = CIRCLE ( 'NONE', #112, 5.000000000000000000 ) ;
#65 = CARTESIAN_POINT ( 'NONE',  ( -2.600000000000000089, 0.000000000000000000, 103.0000000000000142 ) ) ;
#66 = EDGE_CURVE ( 'NONE', #5, #25, #149, .T. ) ;
#67 = VECTOR ( 'NONE', #239, 1000.000000000000000 ) ;
#68 = EDGE_CURVE ( 'NONE', #49, #178, #194, .T. ) ;
#69 = SECURITY_CLASSIFICATION ( '', '', #184 ) ;
#70 = CIRCLE ( 'NONE', #283, 2.600000000000000089 ) ;
#71 = CARTESIAN_POINT ( 'NONE',  ( 0.000000000000000000, 0.000000000000000000, 3.000000000000000000 ) ) ;
#72 = ORIENTED_EDGE ( 'NONE', *, *, #195, .F. ) ;
#73 = CARTESIAN_POINT ( 'NONE',  ( 0.000000000000000000, 0.000000000000000000, 3.000000000000000000 ) ) ;
#74 = CC_DESIGN_PERSON_AND_ORGANIZATION_ASSIGNMENT ( #234, #189, ( #285 ) ) ;
#75 = EDGE_LOOP ( 'NONE', ( #51, #82, #8, #134 ) ) ;
#76 = CC_DESIGN_PERSON_AND_ORGANIZATION_ASSIGNMENT ( #298, #255, ( #233 ) ) ;
#77 = ORIENTED_EDGE ( 'NONE', *, *, #125, .F. ) ;
#78 = ORIENTED_EDGE ( 'NONE', *, *, #66, .F. ) ;
#79 = DATE_AND_TIME ( #47, #32 ) ;
#80 = CARTESIAN_POINT ( 'NONE',  ( 0.000000000000000000, 0.000000000000000000, 103.0000000000000142 ) ) ;
#81 = LINE ( 'NONE', #186, #22 ) ;
#82 = ORIENTED_EDGE ( 'NONE', *, *, #42, .T. ) ;
#83 = APPROVAL_ROLE ( '' ) ;
#84 = CARTESIAN_POINT ( 'NONE',  ( -2.799999999999999822, 3.429011037612589276E-16, 2.999999999999997335 ) ) ;
#85 = CC_DESIGN_SECURITY_CLASSIFICATION ( #69, ( #282 ) ) ;
#86 = PERSON_AND_ORGANIZATION_ROLE ( 'classification_officer' ) ;
#87 = VECTOR ( 'NONE', #171, 1000.000000000000000 ) ;
#88 = DIRECTION ( 'NONE',  ( 1.000000000000000000, 0.000000000000000000, 0.000000000000000000 ) ) ;
#89 = EDGE_CURVE ( 'NONE', #271, #25, #91, .T. ) ;
#90 = CARTESIAN_POINT ( 'NONE',  ( 2.799999999999999822, 0.000000000000000000, 2.999999999999997335 ) ) ;
#91 = LINE ( 'NONE', #65, #87 ) ;
#92 = DIRECTION ( 'NONE',  ( 0.000000000000000000, 0.000000000000000000, 1.000000000000000000 ) ) ;
#93 = PRODUCT_RELATED_PRODUCT_CATEGORY ( 'detail', '', ( #285 ) ) ;
#94 = LINE ( 'NONE', #303, #267 ) ;
#95 = LOCAL_TIME ( 14, 45, 47.00000000000000000, #59 ) ;
#96 = CIRCLE ( 'NONE', #34, 5.000000000000000000 ) ;
#97 = AXIS2_PLACEMENT_3D ( 'NONE', #226, #269, #122 ) ;
#98 = ADVANCED_FACE ( 'NONE', ( #216 ), #145, .F. ) ;
#99 = ORGANIZATION ( 'NEURÈENÝ', 'NEURÈENÝ', '' ) ;
#100 =( NAMED_UNIT ( * ) PLANE_ANGLE_UNIT ( ) SI_UNIT ( $, .RADIAN. ) );
#101 = APPLICATION_CONTEXT ( 'configuration controlled 3d designs of mechanical parts and assemblies' ) ;
#102 =( LENGTH_UNIT ( ) NAMED_UNIT ( * ) SI_UNIT ( .MILLI., .METRE. ) );
#103 = CC_DESIGN_APPROVAL ( #210, ( #69 ) ) ;
#104 = ORIENTED_EDGE ( 'NONE', *, *, #195, .T. ) ;
#105 = FACE_OUTER_BOUND ( 'NONE', #28, .T. ) ;
#106 = PERSON_AND_ORGANIZATION ( #108, #99 ) ;
#107 = ORIENTED_EDGE ( 'NONE', *, *, #306, .T. ) ;
#108 = PERSON ( 'NEURÈENÝ', 'NEURÈENÝ', 'NEURÈENÝ', ('NEURÈENÝ'), ('NEURÈENÝ'), ('NEURÈENÝ') ) ;
#109 = AXIS2_PLACEMENT_3D ( 'NONE', #169, #256, #38 ) ;
#110 = ORIENTED_EDGE ( 'NONE', *, *, #42, .F. ) ;
#111 = APPROVAL_DATE_TIME ( #11, #210 ) ;
#112 = AXIS2_PLACEMENT_3D ( 'NONE', #223, #4, #45 ) ;
#113 = DIRECTION ( 'NONE',  ( 0.000000000000000000, 0.000000000000000000, 1.000000000000000000 ) ) ;
#114 = PERSON_AND_ORGANIZATION ( #108, #99 ) ;
#115 = CYLINDRICAL_SURFACE ( 'NONE', #188, 2.600000000000000089 ) ;
#116 = COORDINATED_UNIVERSAL_TIME_OFFSET ( 1, 0, .AHEAD. ) ;
#117 = DIRECTION ( 'NONE',  ( -1.000000000000000000, 0.000000000000000000, 0.000000000000000000 ) ) ;
#118 = CIRCLE ( 'NONE', #109, 5.000000000000000000 ) ;
#119 = DIRECTION ( 'NONE',  ( 0.000000000000000000, 0.000000000000000000, 1.000000000000000000 ) ) ;
#120 = CARTESIAN_POINT ( 'NONE',  ( 0.000000000000000000, 0.000000000000000000, 3.000000000000000000 ) ) ;
#121 = DIRECTION ( 'NONE',  ( 1.224646799147353207E-16, 1.000000000000000000, -0.000000000000000000 ) ) ;
#122 = DIRECTION ( 'NONE',  ( 1.000000000000000000, 0.000000000000000000, 0.000000000000000000 ) ) ;
#123 = PRODUCT_DEFINITION_SHAPE ( 'NONE', 'NONE',  #233 ) ;
#124 = CC_DESIGN_DATE_AND_TIME_ASSIGNMENT ( #79, #300, ( #233 ) ) ;
#125 = EDGE_CURVE ( 'NONE', #271, #7, #143, .T. ) ;
#126 = CIRCLE ( 'NONE', #214, 0.2000000000000000944 ) ;
#127 = CARTESIAN_POINT ( 'NONE',  ( 5.000000000000000000, 6.123233995736766282E-16, 0.000000000000000000 ) ) ;
#128 = ORIENTED_EDGE ( 'NONE', *, *, #16, .F. ) ;
#129 = EDGE_LOOP ( 'NONE', ( #163, #229 ) ) ;
#130 = DIRECTION ( 'NONE',  ( -1.000000000000000000, 0.000000000000000000, 0.000000000000000000 ) ) ;
#131 = ORIENTED_EDGE ( 'NONE', *, *, #277, .T. ) ;
#132 = DATE_AND_TIME ( #272, #252 ) ;
#133 = EDGE_LOOP ( 'NONE', ( #200, #78, #146, #44 ) ) ;
#134 = ORIENTED_EDGE ( 'NONE', *, *, #89, .F. ) ;
#135 = CALENDAR_DATE ( 2022, 7, 7 ) ;
#136 = APPROVAL_DATE_TIME ( #281, #213 ) ;
#137 = CC_DESIGN_PERSON_AND_ORGANIZATION_ASSIGNMENT ( #27, #14, ( #282 ) ) ;
#138 = ADVANCED_FACE ( 'NONE', ( #105 ), #175, .F. ) ;
#139 = APPROVAL_DATE_TIME ( #211, #57 ) ;
#140 = CARTESIAN_POINT ( 'NONE',  ( 2.799999999999999822, 0.000000000000000000, 3.199999999999994404 ) ) ;
#141 = DIRECTION ( 'NONE',  ( 0.000000000000000000, 0.000000000000000000, 1.000000000000000000 ) ) ;
#142 = CIRCLE ( 'NONE', #224, 2.600000000000000089 ) ;
#143 = CIRCLE ( 'NONE', #204, 2.600000000000000089 ) ;
#144 = FACE_BOUND ( 'NONE', #161, .T. ) ;
#145 = PLANE ( 'NONE',  #290 ) ;
#146 = ORIENTED_EDGE ( 'NONE', *, *, #218, .T. ) ;
#147 = CARTESIAN_POINT ( 'NONE',  ( -2.600000000000000089, 0.000000000000000000, 3.199999999999994404 ) ) ;
#148 = CIRCLE ( 'NONE', #63, 5.000000000000000000 ) ;
#149 = CIRCLE ( 'NONE', #3, 2.600000000000000089 ) ;
#150 = ADVANCED_FACE ( 'NONE', ( #294 ), #291, .T. ) ;
#151 = CC_DESIGN_PERSON_AND_ORGANIZATION_ASSIGNMENT ( #231, #86, ( #69 ) ) ;
#152 = CIRCLE ( 'NONE', #266, 0.2000000000000000944 ) ;
#153 = FACE_OUTER_BOUND ( 'NONE', #30, .T. ) ;
#154 = ADVANCED_FACE ( 'NONE', ( #153 ), #268, .T. ) ;
#155 = ORIENTED_EDGE ( 'NONE', *, *, #260, .F. ) ;
#156 = CARTESIAN_POINT ( 'NONE',  ( 0.000000000000000000, 0.000000000000000000, 3.199999999999994404 ) ) ;
#157 =( GEOMETRIC_REPRESENTATION_CONTEXT ( 3 ) GLOBAL_UNCERTAINTY_ASSIGNED_CONTEXT ( ( #307 ) ) GLOBAL_UNIT_ASSIGNED_CONTEXT ( ( #102, #100, #174 ) ) REPRESENTATION_CONTEXT ( 'NONE', 'WORKASPACE' ) );
#158 = AXIS2_PLACEMENT_3D ( 'NONE', #156, #245, #179 ) ;
#159 = VERTEX_POINT ( 'NONE', #127 ) ;
#160 = APPROVAL_STATUS ( 'not_yet_approved' ) ;
#161 = EDGE_LOOP ( 'NONE', ( #280, #107 ) ) ;
#162 = PERSON_AND_ORGANIZATION_ROLE ( 'design_supplier' ) ;
#163 = ORIENTED_EDGE ( 'NONE', *, *, #212, .T. ) ;
#164 = DIRECTION ( 'NONE',  ( 1.000000000000000000, 0.000000000000000000, 0.000000000000000000 ) ) ;
#165 = CC_DESIGN_APPROVAL ( #57, ( #282 ) ) ;
#166 = AXIS2_PLACEMENT_3D ( 'NONE', #185, #253, #117 ) ;
#167 = APPLICATION_PROTOCOL_DEFINITION ( 'international standard', 'config_control_design', 1994, #23 ) ;
#168 = AXIS2_PLACEMENT_3D ( 'NONE', #71, #176, #130 ) ;
#169 = CARTESIAN_POINT ( 'NONE',  ( 0.000000000000000000, 0.000000000000000000, 3.000000000000000000 ) ) ;
#170 = PERSON_AND_ORGANIZATION ( #108, #99 ) ;
#171 = DIRECTION ( 'NONE',  ( -0.000000000000000000, -0.000000000000000000, -1.000000000000000000 ) ) ;
#172 = EDGE_CURVE ( 'NONE', #159, #178, #64, .T. ) ;
#173 = DESIGN_CONTEXT ( 'detailed design', #23, 'design' ) ;
#174 =( NAMED_UNIT ( * ) SI_UNIT ( $, .STERADIAN. ) SOLID_ANGLE_UNIT ( ) );
#175 = TOROIDAL_SURFACE ( 'NONE', #158, 2.799999999999999822, 0.2000000000000000111 ) ;
#176 = DIRECTION ( 'NONE',  ( -0.000000000000000000, -0.000000000000000000, -1.000000000000000000 ) ) ;
#177 = ADVANCED_FACE ( 'NONE', ( #227 ), #293, .T. ) ;
#178 = VERTEX_POINT ( 'NONE', #207 ) ;
#179 = DIRECTION ( 'NONE',  ( 1.000000000000000000, 0.000000000000000000, 0.000000000000000000 ) ) ;
#180 = ORIENTED_EDGE ( 'NONE', *, *, #89, .T. ) ;
#181 = ORIENTED_EDGE ( 'NONE', *, *, #218, .F. ) ;
#182 = VERTEX_POINT ( 'NONE', #299 ) ;
#183 = APPROVAL_STATUS ( 'not_yet_approved' ) ;
#184 = SECURITY_CLASSIFICATION_LEVEL ( 'unclassified' ) ;
#185 = CARTESIAN_POINT ( 'NONE',  ( 0.000000000000000000, 0.000000000000000000, 103.0000000000000142 ) ) ;
#186 = CARTESIAN_POINT ( 'NONE',  ( 5.000000000000000000, 6.123233995736766282E-16, 3.000000000000000000 ) ) ;
#187 = APPROVAL_PERSON_ORGANIZATION ( #170, #57, #258 ) ;
#188 = AXIS2_PLACEMENT_3D ( 'NONE', #284, #58, #209 ) ;
#189 = PERSON_AND_ORGANIZATION_ROLE ( 'design_owner' ) ;
#190 = CARTESIAN_POINT ( 'NONE',  ( 0.000000000000000000, 0.000000000000000000, 3.000000000000000000 ) ) ;
#191 = FACE_OUTER_BOUND ( 'NONE', #133, .T. ) ;
#192 = CARTESIAN_POINT ( 'NONE',  ( 0.000000000000000000, 0.000000000000000000, 103.0000000000000142 ) ) ;
#193 = EDGE_CURVE ( 'NONE', #182, #159, #81, .T. ) ;
#194 = LINE ( 'NONE', #261, #67 ) ;
#195 = EDGE_CURVE ( 'NONE', #178, #159, #148, .T. ) ;
#196 = ADVANCED_FACE ( 'NONE', ( #279 ), #115, .T. ) ;
#197 = AXIS2_PLACEMENT_3D ( 'NONE', #199, #206, #9 ) ;
#198 = CARTESIAN_POINT ( 'NONE',  ( 0.000000000000000000, 0.000000000000000000, 103.0000000000000142 ) ) ;
#199 = CARTESIAN_POINT ( 'NONE',  ( 0.000000000000000000, 0.000000000000000000, 3.000000000000000000 ) ) ;
#200 = ORIENTED_EDGE ( 'NONE', *, *, #21, .F. ) ;
#201 = ORIENTED_EDGE ( 'NONE', *, *, #193, .F. ) ;
#202 = CYLINDRICAL_SURFACE ( 'NONE', #197, 5.000000000000000000 ) ;
#203 = VERTEX_POINT ( 'NONE', #84 ) ;
#204 = AXIS2_PLACEMENT_3D ( 'NONE', #192, #270, #43 ) ;
#205 = ORIENTED_EDGE ( 'NONE', *, *, #68, .F. ) ;
#206 = DIRECTION ( 'NONE',  ( -0.000000000000000000, -0.000000000000000000, -1.000000000000000000 ) ) ;
#207 = CARTESIAN_POINT ( 'NONE',  ( -5.000000000000000000, 0.000000000000000000, 0.000000000000000000 ) ) ;
#208 = COORDINATED_UNIVERSAL_TIME_OFFSET ( 1, 0, .AHEAD. ) ;
#209 = DIRECTION ( 'NONE',  ( -1.000000000000000000, 0.000000000000000000, 0.000000000000000000 ) ) ;
#210 = APPROVAL ( #183, 'NEURÈENÝ' ) ;
#211 = DATE_AND_TIME ( #55, #243 ) ;
#212 = EDGE_CURVE ( 'NONE', #49, #182, #118, .T. ) ;
#213 = APPROVAL ( #160, 'NEURÈENÝ' ) ;
#214 = AXIS2_PLACEMENT_3D ( 'NONE', #220, #121, #219 ) ;
#215 = DIRECTION ( 'NONE',  ( 1.000000000000000000, 0.000000000000000000, 0.000000000000000000 ) ) ;
#216 = FACE_OUTER_BOUND ( 'NONE', #46, .T. ) ;
#217 = DIRECTION ( 'NONE',  ( 0.000000000000000000, 0.000000000000000000, 1.000000000000000000 ) ) ;
#218 = EDGE_CURVE ( 'NONE', #5, #250, #152, .T. ) ;
#219 = DIRECTION ( 'NONE',  ( -1.000000000000000000, 1.224646799147353207E-16, 0.000000000000000000 ) ) ;
#220 = CARTESIAN_POINT ( 'NONE',  ( -2.799999999999999822, 3.429011037612588783E-16, 3.199999999999994404 ) ) ;
#221 = ADVANCED_FACE ( 'NONE', ( #191 ), #56, .F. ) ;
#222 = EDGE_CURVE ( 'NONE', #182, #49, #96, .T. ) ;
#223 = CARTESIAN_POINT ( 'NONE',  ( 0.000000000000000000, 0.000000000000000000, 0.000000000000000000 ) ) ;
#224 = AXIS2_PLACEMENT_3D ( 'NONE', #304, #92, #60 ) ;
#225 = ORIENTED_EDGE ( 'NONE', *, *, #212, .F. ) ;
#226 = CARTESIAN_POINT ( 'NONE',  ( 0.000000000000000000, 0.000000000000000000, 3.000000000000000000 ) ) ;
#227 = FACE_OUTER_BOUND ( 'NONE', #26, .T. ) ;
#228 = DATE_TIME_ROLE ( 'classification_date' ) ;
#229 = ORIENTED_EDGE ( 'NONE', *, *, #222, .T. ) ;
#230 = ORIENTED_EDGE ( 'NONE', *, *, #193, .T. ) ;
#231 = PERSON_AND_ORGANIZATION ( #108, #99 ) ;
#232 = FACE_OUTER_BOUND ( 'NONE', #6, .T. ) ;
#233 = PRODUCT_DEFINITION ( 'NEZNÁMÝ', '', #282, #173 ) ;
#234 = PERSON_AND_ORGANIZATION ( #108, #99 ) ;
#235 = APPROVAL_STATUS ( 'not_yet_approved' ) ;
#236 = DIRECTION ( 'NONE',  ( 0.000000000000000000, 0.000000000000000000, -1.000000000000000000 ) ) ;
#237 = AXIS2_PLACEMENT_3D ( 'NONE', #33, #50, #12 ) ;
#238 = ADVANCED_BREP_SHAPE_REPRESENTATION ( '53b1', ( #259, #237 ), #157 ) ;
#239 = DIRECTION ( 'NONE',  ( -0.000000000000000000, -0.000000000000000000, -1.000000000000000000 ) ) ;
#240 = DIRECTION ( 'NONE',  ( 0.000000000000000000, 0.000000000000000000, 1.000000000000000000 ) ) ;
#241 = LOCAL_TIME ( 14, 45, 47.00000000000000000, #249 ) ;
#242 = DIRECTION ( 'NONE',  ( 0.000000000000000000, 0.000000000000000000, 1.000000000000000000 ) ) ;
#243 = LOCAL_TIME ( 14, 45, 47.00000000000000000, #208 ) ;
#244 = ORIENTED_EDGE ( 'NONE', *, *, #21, .T. ) ;
#245 = DIRECTION ( 'NONE',  ( 0.000000000000000000, 0.000000000000000000, 1.000000000000000000 ) ) ;
#246 = ORIENTED_EDGE ( 'NONE', *, *, #260, .T. ) ;
#247 = DIRECTION ( 'NONE',  ( -0.000000000000000000, -0.000000000000000000, -1.000000000000000000 ) ) ;
#248 = ORIENTED_EDGE ( 'NONE', *, *, #172, .T. ) ;
#249 = COORDINATED_UNIVERSAL_TIME_OFFSET ( 1, 0, .AHEAD. ) ;
#250 = VERTEX_POINT ( 'NONE', #90 ) ;
#251 = APPLICATION_PROTOCOL_DEFINITION ( 'international standard', 'config_control_design', 1994, #101 ) ;
#252 = LOCAL_TIME ( 14, 45, 47.00000000000000000, #116 ) ;
#253 = DIRECTION ( 'NONE',  ( -0.000000000000000000, -0.000000000000000000, -1.000000000000000000 ) ) ;
#254 = CIRCLE ( 'NONE', #41, 2.799999999999999822 ) ;
#255 = PERSON_AND_ORGANIZATION_ROLE ( 'creator' ) ;
#256 = DIRECTION ( 'NONE',  ( 0.000000000000000000, 0.000000000000000000, 1.000000000000000000 ) ) ;
#257 = ADVANCED_FACE ( 'NONE', ( #144, #18 ), #286, .T. ) ;
#258 = APPROVAL_ROLE ( '' ) ;
#259 = MANIFOLD_SOLID_BREP ( 'Zaoblit1', #302 ) ;
#260 = EDGE_CURVE ( 'NONE', #25, #5, #142, .T. ) ;
#261 = CARTESIAN_POINT ( 'NONE',  ( -5.000000000000000000, 0.000000000000000000, 3.000000000000000000 ) ) ;
#262 = CARTESIAN_POINT ( 'NONE',  ( 0.000000000000000000, 0.000000000000000000, 0.000000000000000000 ) ) ;
#263 = CC_DESIGN_DATE_AND_TIME_ASSIGNMENT ( #132, #228, ( #69 ) ) ;
#264 = ADVANCED_FACE ( 'NONE', ( #232 ), #202, .T. ) ;
#265 = CC_DESIGN_APPROVAL ( #213, ( #233 ) ) ;
#266 = AXIS2_PLACEMENT_3D ( 'NONE', #140, #39, #236 ) ;
#267 = VECTOR ( 'NONE', #62, 1000.000000000000000 ) ;
#268 = PLANE ( 'NONE',  #35 ) ;
#269 = DIRECTION ( 'NONE',  ( -0.000000000000000000, -0.000000000000000000, -1.000000000000000000 ) ) ;
#270 = DIRECTION ( 'NONE',  ( 0.000000000000000000, 0.000000000000000000, 1.000000000000000000 ) ) ;
#271 = VERTEX_POINT ( 'NONE', #29 ) ;
#272 = CALENDAR_DATE ( 2022, 7, 7 ) ;
#273 = EDGE_LOOP ( 'NONE', ( #201, #225, #54, #104 ) ) ;
#274 = CIRCLE ( 'NONE', #97, 2.799999999999999822 ) ;
#275 = APPROVAL_ROLE ( '' ) ;
#276 = ORIENTED_EDGE ( 'NONE', *, *, #172, .F. ) ;
#277 = EDGE_CURVE ( 'NONE', #7, #271, #70, .T. ) ;
#278 = DIRECTION ( 'NONE',  ( 1.000000000000000000, 0.000000000000000000, 0.000000000000000000 ) ) ;
#279 = FACE_OUTER_BOUND ( 'NONE', #75, .T. ) ;
#280 = ORIENTED_EDGE ( 'NONE', *, *, #16, .T. ) ;
#281 = DATE_AND_TIME ( #31, #95 ) ;
#282 = PRODUCT_DEFINITION_FORMATION_WITH_SPECIFIED_SOURCE ( 'LIBOVOLNÝ', '', #285, .NOT_KNOWN. ) ;
#283 = AXIS2_PLACEMENT_3D ( 'NONE', #80, #113, #278 ) ;
#284 = CARTESIAN_POINT ( 'NONE',  ( 0.000000000000000000, 0.000000000000000000, 103.0000000000000142 ) ) ;
#285 = PRODUCT ( '53b1', '53b1', '', ( #37 ) ) ;
#286 = PLANE ( 'NONE',  #289 ) ;
#287 = CC_DESIGN_PERSON_AND_ORGANIZATION_ASSIGNMENT ( #106, #162, ( #282 ) ) ;
#288 = DIRECTION ( 'NONE',  ( 1.000000000000000000, 0.000000000000000000, 0.000000000000000000 ) ) ;
#289 = AXIS2_PLACEMENT_3D ( 'NONE', #120, #217, #61 ) ;
#290 = AXIS2_PLACEMENT_3D ( 'NONE', #262, #240, #19 ) ;
#291 = CYLINDRICAL_SURFACE ( 'NONE', #168, 5.000000000000000000 ) ;
#292 = CARTESIAN_POINT ( 'NONE',  ( 2.600000000000000089, 3.184081677783118191E-16, 103.0000000000000142 ) ) ;
#293 = CYLINDRICAL_SURFACE ( 'NONE', #166, 2.600000000000000089 ) ;
#294 = FACE_OUTER_BOUND ( 'NONE', #273, .T. ) ;
#295 = PERSON_AND_ORGANIZATION ( #108, #99 ) ;
#296 = CARTESIAN_POINT ( 'NONE',  ( 2.600000000000000089, 3.184081677783118191E-16, 3.199999999999994404 ) ) ;
#297 = DIRECTION ( 'NONE',  ( 1.000000000000000000, 0.000000000000000000, 0.000000000000000000 ) ) ;
#298 = PERSON_AND_ORGANIZATION ( #108, #99 ) ;
#299 = CARTESIAN_POINT ( 'NONE',  ( 5.000000000000000000, 6.123233995736766282E-16, 3.000000000000000000 ) ) ;
#300 = DATE_TIME_ROLE ( 'creation_date' ) ;
#301 = COORDINATED_UNIVERSAL_TIME_OFFSET ( 1, 0, .AHEAD. ) ;
#302 = CLOSED_SHELL ( 'NONE', ( #138, #196, #264, #150, #257, #98, #177, #154, #221 ) ) ;
#303 = CARTESIAN_POINT ( 'NONE',  ( 2.600000000000000089, 3.184081677783118191E-16, 103.0000000000000142 ) ) ;
#304 = CARTESIAN_POINT ( 'NONE',  ( 0.000000000000000000, 0.000000000000000000, 3.199999999999994404 ) ) ;
#305 = CARTESIAN_POINT ( 'NONE',  ( -5.000000000000000000, 0.000000000000000000, 3.000000000000000000 ) ) ;
#306 = EDGE_CURVE ( 'NONE', #203, #250, #254, .T. ) ;
#307 = UNCERTAINTY_MEASURE_WITH_UNIT (LENGTH_MEASURE( 1.000000000000000082E-05 ), #102, 'distance_accuracy_value', 'NONE');
ENDSEC;
END-ISO-10303-21;
