ISO-10303-21;
HEADER;
FILE_DESCRIPTION (( 'STEP AP203' ),
    '1' );
FILE_NAME ('2081.STEP',
    '2022-07-07T12:33:57',
    ( '' ),
    ( '' ),
    'SwSTEP 2.0',
    'SolidWorks 2019',
    '' );
FILE_SCHEMA (( 'CONFIG_CONTROL_DESIGN' ));
ENDSEC;

DATA;
#1 = CARTESIAN_POINT ( 'NONE',  ( 0.000000000000000000, 0.000000000000000000, 5.000000000000000000 ) ) ;
#2 = CARTESIAN_POINT ( 'NONE',  ( -4.000000000000000000, 0.000000000000000000, 5.199999999999982414 ) ) ;
#3 = EDGE_CURVE ( 'NONE', #234, #141, #119, .T. ) ;
#4 = DIRECTION ( 'NONE',  ( 0.000000000000000000, 0.000000000000000000, 1.000000000000000000 ) ) ;
#5 = FACE_OUTER_BOUND ( 'NONE', #261, .T. ) ;
#6 = APPROVAL ( #13, 'NEURÈENÝ' ) ;
#7 = DATE_AND_TIME ( #299, #17 ) ;
#8 = DATE_TIME_ROLE ( 'creation_date' ) ;
#9 = DESIGN_CONTEXT ( 'detailed design', #14, 'design' ) ;
#10 = APPROVAL_ROLE ( '' ) ;
#11 = DATE_AND_TIME ( #172, #150 ) ;
#12 = EDGE_LOOP ( 'NONE', ( #23, #305, #62, #110 ) ) ;
#13 = APPROVAL_STATUS ( 'not_yet_approved' ) ;
#14 = APPLICATION_CONTEXT ( 'configuration controlled 3d designs of mechanical parts and assemblies' ) ;
#15 = ORIENTED_EDGE ( 'NONE', *, *, #160, .T. ) ;
#16 = CIRCLE ( 'NONE', #177, 0.1999999999999996503 ) ;
#17 = LOCAL_TIME ( 14, 33, 57.00000000000000000, #203 ) ;
#18 = LINE ( 'NONE', #52, #128 ) ;
#19 = CC_DESIGN_PERSON_AND_ORGANIZATION_ASSIGNMENT ( #153, #199, ( #248 ) ) ;
#20 = DIRECTION ( 'NONE',  ( 1.000000000000000000, 0.000000000000000000, 0.000000000000000000 ) ) ;
#21 = FACE_OUTER_BOUND ( 'NONE', #276, .T. ) ;
#22 = DIRECTION ( 'NONE',  ( 1.000000000000000000, 0.000000000000000000, 0.000000000000000000 ) ) ;
#23 = ORIENTED_EDGE ( 'NONE', *, *, #291, .F. ) ;
#24 = DIRECTION ( 'NONE',  ( 0.000000000000000000, 0.000000000000000000, 1.000000000000000000 ) ) ;
#25 = CC_DESIGN_DATE_AND_TIME_ASSIGNMENT ( #249, #8, ( #250 ) ) ;
#26 = DIRECTION ( 'NONE',  ( 0.000000000000000000, 0.000000000000000000, -1.000000000000000000 ) ) ;
#27 = DIRECTION ( 'NONE',  ( -1.000000000000000000, 1.224646799147353454E-16, 0.000000000000000000 ) ) ;
#28 = LOCAL_TIME ( 14, 33, 57.00000000000000000, #271 ) ;
#29 = FACE_OUTER_BOUND ( 'NONE', #12, .T. ) ;
#30 = CC_DESIGN_APPROVAL ( #6, ( #178 ) ) ;
#31 = DIRECTION ( 'NONE',  ( -1.000000000000000000, 0.000000000000000000, 0.000000000000000000 ) ) ;
#32 = CIRCLE ( 'NONE', #155, 4.200000000000000178 ) ;
#33 = DIRECTION ( 'NONE',  ( -0.000000000000000000, -0.000000000000000000, -1.000000000000000000 ) ) ;
#34 = ADVANCED_FACE ( 'NONE', ( #21 ), #190, .T. ) ;
#35 = AXIS2_PLACEMENT_3D ( 'NONE', #118, #85, #233 ) ;
#36 = CARTESIAN_POINT ( 'NONE',  ( 0.000000000000000000, 0.000000000000000000, 0.000000000000000000 ) ) ;
#37 = APPROVAL_STATUS ( 'not_yet_approved' ) ;
#38 = EDGE_LOOP ( 'NONE', ( #154, #84, #230, #130 ) ) ;
#39 = DIRECTION ( 'NONE',  ( -0.000000000000000000, -0.000000000000000000, -1.000000000000000000 ) ) ;
#40 = APPROVAL_PERSON_ORGANIZATION ( #129, #6, #105 ) ;
#41 = DIRECTION ( 'NONE',  ( 1.000000000000000000, 0.000000000000000000, 0.000000000000000000 ) ) ;
#42 = CARTESIAN_POINT ( 'NONE',  ( 0.000000000000000000, 0.000000000000000000, 5.000000000000000000 ) ) ;
#43 = CARTESIAN_POINT ( 'NONE',  ( 0.000000000000000000, 0.000000000000000000, 405.0000000000000000 ) ) ;
#44 = DIRECTION ( 'NONE',  ( 1.000000000000000000, 0.000000000000000000, 0.000000000000000000 ) ) ;
#45 = CIRCLE ( 'NONE', #222, 7.000000000000000000 ) ;
#46 = CARTESIAN_POINT ( 'NONE',  ( 0.000000000000000000, 0.000000000000000000, 5.000000000000000000 ) ) ;
#47 = CARTESIAN_POINT ( 'NONE',  ( -4.200000000000000178, 5.143516556418882928E-16, 4.999999999999991118 ) ) ;
#48 = DIRECTION ( 'NONE',  ( -0.000000000000000000, -0.000000000000000000, -1.000000000000000000 ) ) ;
#49 = DIRECTION ( 'NONE',  ( -0.000000000000000000, -0.000000000000000000, -1.000000000000000000 ) ) ;
#50 = AXIS2_PLACEMENT_3D ( 'NONE', #121, #186, #214 ) ;
#51 = EDGE_CURVE ( 'NONE', #227, #141, #32, .T. ) ;
#52 = CARTESIAN_POINT ( 'NONE',  ( 4.000000000000000000, 4.898587196589412829E-16, 405.0000000000000000 ) ) ;
#53 = PERSON_AND_ORGANIZATION_ROLE ( 'design_supplier' ) ;
#54 = UNCERTAINTY_MEASURE_WITH_UNIT (LENGTH_MEASURE( 1.000000000000000082E-05 ), #193, 'distance_accuracy_value', 'NONE');
#55 = PRODUCT ( '2081', '2081', '', ( #228 ) ) ;
#56 = AXIS2_PLACEMENT_3D ( 'NONE', #43, #115, #286 ) ;
#57 = EDGE_CURVE ( 'NONE', #234, #67, #263, .T. ) ;
#58 = SECURITY_CLASSIFICATION_LEVEL ( 'unclassified' ) ;
#59 = DATE_AND_TIME ( #273, #107 ) ;
#60 = CC_DESIGN_PERSON_AND_ORGANIZATION_ASSIGNMENT ( #152, #102, ( #178 ) ) ;
#61 = VERTEX_POINT ( 'NONE', #68 ) ;
#62 = ORIENTED_EDGE ( 'NONE', *, *, #206, .T. ) ;
#63 = LOCAL_TIME ( 14, 33, 57.00000000000000000, #225 ) ;
#64 = DIRECTION ( 'NONE',  ( 1.000000000000000000, 0.000000000000000000, 0.000000000000000000 ) ) ;
#65 = CC_DESIGN_APPROVAL ( #72, ( #248 ) ) ;
#66 = CARTESIAN_POINT ( 'NONE',  ( 0.000000000000000000, 0.000000000000000000, 405.0000000000000000 ) ) ;
#67 = VERTEX_POINT ( 'NONE', #262 ) ;
#68 = CARTESIAN_POINT ( 'NONE',  ( 4.000000000000000000, 4.898587196589412829E-16, 405.0000000000000000 ) ) ;
#69 = DIRECTION ( 'NONE',  ( -0.000000000000000000, -0.000000000000000000, -1.000000000000000000 ) ) ;
#70 = FACE_OUTER_BOUND ( 'NONE', #113, .T. ) ;
#71 = DIRECTION ( 'NONE',  ( 1.000000000000000000, 0.000000000000000000, 0.000000000000000000 ) ) ;
#72 = APPROVAL ( #293, 'NEURÈENÝ' ) ;
#73 = DIRECTION ( 'NONE',  ( 1.000000000000000000, 0.000000000000000000, 0.000000000000000000 ) ) ;
#74 = CYLINDRICAL_SURFACE ( 'NONE', #247, 7.000000000000000000 ) ;
#75 = AXIS2_PLACEMENT_3D ( 'NONE', #281, #4, #22 ) ;
#76 = DIRECTION ( 'NONE',  ( 0.000000000000000000, 0.000000000000000000, 1.000000000000000000 ) ) ;
#77 = AXIS2_PLACEMENT_3D ( 'NONE', #120, #49, #31 ) ;
#78 = CIRCLE ( 'NONE', #138, 4.000000000000000000 ) ;
#79 = PERSON_AND_ORGANIZATION ( #264, #82 ) ;
#80 = PERSON_AND_ORGANIZATION ( #264, #82 ) ;
#81 = EDGE_CURVE ( 'NONE', #187, #274, #159, .T. ) ;
#82 = ORGANIZATION ( 'NEURÈENÝ', 'NEURÈENÝ', '' ) ;
#83 = ORIENTED_EDGE ( 'NONE', *, *, #81, .T. ) ;
#84 = ORIENTED_EDGE ( 'NONE', *, *, #103, .F. ) ;
#85 = DIRECTION ( 'NONE',  ( -0.000000000000000000, -0.000000000000000000, -1.000000000000000000 ) ) ;
#86 = ORIENTED_EDGE ( 'NONE', *, *, #3, .F. ) ;
#87 = AXIS2_PLACEMENT_3D ( 'NONE', #88, #98, #41 ) ;
#88 = CARTESIAN_POINT ( 'NONE',  ( 0.000000000000000000, 0.000000000000000000, 405.0000000000000000 ) ) ;
#89 = VERTEX_POINT ( 'NONE', #189 ) ;
#90 = ORIENTED_EDGE ( 'NONE', *, *, #241, .T. ) ;
#91 = CARTESIAN_POINT ( 'NONE',  ( -4.200000000000000178, 5.143516556418882928E-16, 5.199999999999982414 ) ) ;
#92 = AXIS2_PLACEMENT_3D ( 'NONE', #303, #133, #64 ) ;
#93 = DIRECTION ( 'NONE',  ( 0.000000000000000000, 0.000000000000000000, 1.000000000000000000 ) ) ;
#94 = CC_DESIGN_SECURITY_CLASSIFICATION ( #178, ( #248 ) ) ;
#95 = DIRECTION ( 'NONE',  ( -1.000000000000000000, 0.000000000000000000, 0.000000000000000000 ) ) ;
#96 = CC_DESIGN_PERSON_AND_ORGANIZATION_ASSIGNMENT ( #79, #124, ( #55 ) ) ;
#97 = ORIENTED_EDGE ( 'NONE', *, *, #81, .F. ) ;
#98 = DIRECTION ( 'NONE',  ( 0.000000000000000000, 0.000000000000000000, 1.000000000000000000 ) ) ;
#99 = APPLICATION_PROTOCOL_DEFINITION ( 'international standard', 'config_control_design', 1994, #14 ) ;
#100 = EDGE_CURVE ( 'NONE', #141, #227, #244, .T. ) ;
#101 = APPROVAL_DATE_TIME ( #11, #72 ) ;
#102 = PERSON_AND_ORGANIZATION_ROLE ( 'classification_officer' ) ;
#103 = EDGE_CURVE ( 'NONE', #89, #157, #45, .T. ) ;
#104 = EDGE_LOOP ( 'NONE', ( #162, #301 ) ) ;
#105 = APPROVAL_ROLE ( '' ) ;
#106 = ORIENTED_EDGE ( 'NONE', *, *, #304, .F. ) ;
#107 = LOCAL_TIME ( 14, 33, 57.00000000000000000, #201 ) ;
#108 = CARTESIAN_POINT ( 'NONE',  ( 4.200000000000000178, 0.000000000000000000, 5.199999999999982414 ) ) ;
#109 = CARTESIAN_POINT ( 'NONE',  ( 7.000000000000000000, 8.572527594031473190E-16, 0.000000000000000000 ) ) ;
#110 = ORIENTED_EDGE ( 'NONE', *, *, #241, .F. ) ;
#111 = CC_DESIGN_PERSON_AND_ORGANIZATION_ASSIGNMENT ( #80, #53, ( #248 ) ) ;
#112 = CARTESIAN_POINT ( 'NONE',  ( 0.000000000000000000, 0.000000000000000000, 0.000000000000000000 ) ) ;
#113 = EDGE_LOOP ( 'NONE', ( #275, #204, #279, #181 ) ) ;
#114 = FACE_BOUND ( 'NONE', #104, .T. ) ;
#115 = DIRECTION ( 'NONE',  ( -0.000000000000000000, -0.000000000000000000, -1.000000000000000000 ) ) ;
#116 =( GEOMETRIC_REPRESENTATION_CONTEXT ( 3 ) GLOBAL_UNCERTAINTY_ASSIGNED_CONTEXT ( ( #54 ) ) GLOBAL_UNIT_ASSIGNED_CONTEXT ( ( #193, #126, #292 ) ) REPRESENTATION_CONTEXT ( 'NONE', 'WORKASPACE' ) );
#117 = EDGE_LOOP ( 'NONE', ( #167, #306, #83, #106 ) ) ;
#118 = CARTESIAN_POINT ( 'NONE',  ( 0.000000000000000000, 0.000000000000000000, 405.0000000000000000 ) ) ;
#119 = CIRCLE ( 'NONE', #297, 0.1999999999999996503 ) ;
#120 = CARTESIAN_POINT ( 'NONE',  ( 0.000000000000000000, 0.000000000000000000, 5.000000000000000000 ) ) ;
#121 = CARTESIAN_POINT ( 'NONE',  ( 0.000000000000000000, 0.000000000000000000, 5.000000000000000000 ) ) ;
#122 = APPROVAL_ROLE ( '' ) ;
#123 = APPROVAL ( #37, 'NEURÈENÝ' ) ;
#124 = PERSON_AND_ORGANIZATION_ROLE ( 'design_owner' ) ;
#125 = DIRECTION ( 'NONE',  ( 1.000000000000000000, 0.000000000000000000, 0.000000000000000000 ) ) ;
#126 =( NAMED_UNIT ( * ) PLANE_ANGLE_UNIT ( ) SI_UNIT ( $, .RADIAN. ) );
#127 = ADVANCED_FACE ( 'NONE', ( #114, #211 ), #213, .T. ) ;
#128 = VECTOR ( 'NONE', #48, 1000.000000000000000 ) ;
#129 = PERSON_AND_ORGANIZATION ( #264, #82 ) ;
#130 = ORIENTED_EDGE ( 'NONE', *, *, #166, .T. ) ;
#131 = ADVANCED_FACE ( 'NONE', ( #70 ), #210, .F. ) ;
#132 = VECTOR ( 'NONE', #142, 1000.000000000000000 ) ;
#133 = DIRECTION ( 'NONE',  ( 0.000000000000000000, 0.000000000000000000, 1.000000000000000000 ) ) ;
#134 = CARTESIAN_POINT ( 'NONE',  ( 4.200000000000000178, 0.000000000000000000, 4.999999999999991118 ) ) ;
#135 = DIRECTION ( 'NONE',  ( 1.000000000000000000, 0.000000000000000000, 0.000000000000000000 ) ) ;
#136 = DIRECTION ( 'NONE',  ( 0.000000000000000000, 0.000000000000000000, 1.000000000000000000 ) ) ;
#137 = DIRECTION ( 'NONE',  ( 1.224646799147353207E-16, 1.000000000000000000, -0.000000000000000000 ) ) ;
#138 = AXIS2_PLACEMENT_3D ( 'NONE', #66, #184, #20 ) ;
#139 = CARTESIAN_POINT ( 'NONE',  ( 0.000000000000000000, 0.000000000000000000, 5.000000000000000000 ) ) ;
#140 = ORIENTED_EDGE ( 'NONE', *, *, #218, .T. ) ;
#141 = VERTEX_POINT ( 'NONE', #47 ) ;
#142 = DIRECTION ( 'NONE',  ( -0.000000000000000000, -0.000000000000000000, -1.000000000000000000 ) ) ;
#143 = CYLINDRICAL_SURFACE ( 'NONE', #77, 7.000000000000000000 ) ;
#144 = CARTESIAN_POINT ( 'NONE',  ( -4.000000000000000000, 0.000000000000000000, 405.0000000000000000 ) ) ;
#145 = AXIS2_PLACEMENT_3D ( 'NONE', #139, #69, #238 ) ;
#146 = ADVANCED_FACE ( 'NONE', ( #266 ), #143, .T. ) ;
#147 = CALENDAR_DATE ( 2022, 7, 7 ) ;
#148 = CIRCLE ( 'NONE', #185, 7.000000000000000000 ) ;
#149 = ADVANCED_BREP_SHAPE_REPRESENTATION ( '2081', ( #239, #294 ), #116 ) ;
#150 = LOCAL_TIME ( 14, 33, 57.00000000000000000, #176 ) ;
#151 = EDGE_CURVE ( 'NONE', #157, #187, #243, .T. ) ;
#152 = PERSON_AND_ORGANIZATION ( #264, #82 ) ;
#153 = PERSON_AND_ORGANIZATION ( #264, #82 ) ;
#154 = ORIENTED_EDGE ( 'NONE', *, *, #151, .F. ) ;
#155 = AXIS2_PLACEMENT_3D ( 'NONE', #46, #165, #71 ) ;
#156 = ORIENTED_EDGE ( 'NONE', *, *, #232, .F. ) ;
#157 = VERTEX_POINT ( 'NONE', #278 ) ;
#158 = LINE ( 'NONE', #144, #195 ) ;
#159 = CIRCLE ( 'NONE', #251, 7.000000000000000000 ) ;
#160 = EDGE_CURVE ( 'NONE', #157, #89, #289, .T. ) ;
#161 = FACE_OUTER_BOUND ( 'NONE', #298, .T. ) ;
#162 = ORIENTED_EDGE ( 'NONE', *, *, #51, .T. ) ;
#163 = DIRECTION ( 'NONE',  ( 0.000000000000000000, 0.000000000000000000, 1.000000000000000000 ) ) ;
#164 = APPROVAL_PERSON_ORGANIZATION ( #224, #123, #122 ) ;
#165 = DIRECTION ( 'NONE',  ( -0.000000000000000000, -0.000000000000000000, -1.000000000000000000 ) ) ;
#166 = EDGE_CURVE ( 'NONE', #274, #187, #148, .T. ) ;
#167 = ORIENTED_EDGE ( 'NONE', *, *, #160, .F. ) ;
#168 = LINE ( 'NONE', #265, #132 ) ;
#169 = CARTESIAN_POINT ( 'NONE',  ( 0.000000000000000000, 0.000000000000000000, 5.199999999999982414 ) ) ;
#170 = DIRECTION ( 'NONE',  ( 0.000000000000000000, 0.000000000000000000, 1.000000000000000000 ) ) ;
#171 = CC_DESIGN_PERSON_AND_ORGANIZATION_ASSIGNMENT ( #221, #179, ( #250 ) ) ;
#172 = CALENDAR_DATE ( 2022, 7, 7 ) ;
#173 = CLOSED_SHELL ( 'NONE', ( #131, #280, #272, #146, #127, #180, #295, #34, #223 ) ) ;
#174 = PRODUCT_DEFINITION_SHAPE ( 'NONE', 'NONE',  #250 ) ;
#175 = CALENDAR_DATE ( 2022, 7, 7 ) ;
#176 = COORDINATED_UNIVERSAL_TIME_OFFSET ( 1, 0, .AHEAD. ) ;
#177 = AXIS2_PLACEMENT_3D ( 'NONE', #108, #235, #26 ) ;
#178 = SECURITY_CLASSIFICATION ( '', '', #58 ) ;
#179 = PERSON_AND_ORGANIZATION_ROLE ( 'creator' ) ;
#180 = ADVANCED_FACE ( 'NONE', ( #217 ), #207, .F. ) ;
#181 = ORIENTED_EDGE ( 'NONE', *, *, #218, .F. ) ;
#182 = AXIS2_PLACEMENT_3D ( 'NONE', #216, #236, #188 ) ;
#183 = ORIENTED_EDGE ( 'NONE', *, *, #206, .F. ) ;
#184 = DIRECTION ( 'NONE',  ( 0.000000000000000000, 0.000000000000000000, 1.000000000000000000 ) ) ;
#185 = AXIS2_PLACEMENT_3D ( 'NONE', #277, #170, #73 ) ;
#186 = DIRECTION ( 'NONE',  ( 0.000000000000000000, 0.000000000000000000, 1.000000000000000000 ) ) ;
#187 = VERTEX_POINT ( 'NONE', #109 ) ;
#188 = DIRECTION ( 'NONE',  ( 1.000000000000000000, 0.000000000000000000, -0.000000000000000000 ) ) ;
#189 = CARTESIAN_POINT ( 'NONE',  ( -7.000000000000000000, 0.000000000000000000, 5.000000000000000000 ) ) ;
#190 = PLANE ( 'NONE',  #182 ) ;
#191 = CARTESIAN_POINT ( 'NONE',  ( 0.000000000000000000, 0.000000000000000000, 0.000000000000000000 ) ) ;
#192 = DIRECTION ( 'NONE',  ( 0.000000000000000000, 0.000000000000000000, 1.000000000000000000 ) ) ;
#193 =( LENGTH_UNIT ( ) NAMED_UNIT ( * ) SI_UNIT ( .MILLI., .METRE. ) );
#194 = FACE_OUTER_BOUND ( 'NONE', #117, .T. ) ;
#195 = VECTOR ( 'NONE', #39, 1000.000000000000000 ) ;
#196 = AXIS2_PLACEMENT_3D ( 'NONE', #1, #93, #285 ) ;
#197 = SHAPE_DEFINITION_REPRESENTATION ( #174, #149 ) ;
#198 = PERSON_AND_ORGANIZATION ( #264, #82 ) ;
#199 = PERSON_AND_ORGANIZATION_ROLE ( 'creator' ) ;
#200 = CC_DESIGN_APPROVAL ( #123, ( #250 ) ) ;
#201 = COORDINATED_UNIVERSAL_TIME_OFFSET ( 1, 0, .AHEAD. ) ;
#202 = ORIENTED_EDGE ( 'NONE', *, *, #57, .T. ) ;
#203 = COORDINATED_UNIVERSAL_TIME_OFFSET ( 1, 0, .AHEAD. ) ;
#204 = ORIENTED_EDGE ( 'NONE', *, *, #3, .T. ) ;
#205 = EDGE_LOOP ( 'NONE', ( #240, #97 ) ) ;
#206 = EDGE_CURVE ( 'NONE', #67, #234, #254, .T. ) ;
#207 = PLANE ( 'NONE',  #283 ) ;
#208 = DIRECTION ( 'NONE',  ( 1.000000000000000000, 0.000000000000000000, 0.000000000000000000 ) ) ;
#209 = ORIENTED_EDGE ( 'NONE', *, *, #291, .T. ) ;
#210 = TOROIDAL_SURFACE ( 'NONE', #300, 4.200000000000000178, 0.2000000000000000111 ) ;
#211 = FACE_OUTER_BOUND ( 'NONE', #307, .T. ) ;
#212 = VECTOR ( 'NONE', #33, 1000.000000000000000 ) ;
#213 = PLANE ( 'NONE',  #196 ) ;
#214 = DIRECTION ( 'NONE',  ( 1.000000000000000000, 0.000000000000000000, 0.000000000000000000 ) ) ;
#215 = CIRCLE ( 'NONE', #87, 4.000000000000000000 ) ;
#216 = CARTESIAN_POINT ( 'NONE',  ( 0.000000000000000000, 0.000000000000000000, 405.0000000000000000 ) ) ;
#217 = FACE_OUTER_BOUND ( 'NONE', #205, .T. ) ;
#218 = EDGE_CURVE ( 'NONE', #67, #227, #16, .T. ) ;
#219 = DIRECTION ( 'NONE',  ( 1.000000000000000000, 0.000000000000000000, -0.000000000000000000 ) ) ;
#220 = DATE_TIME_ROLE ( 'classification_date' ) ;
#221 = PERSON_AND_ORGANIZATION ( #264, #82 ) ;
#222 = AXIS2_PLACEMENT_3D ( 'NONE', #42, #24, #259 ) ;
#223 = ADVANCED_FACE ( 'NONE', ( #5 ), #226, .F. ) ;
#224 = PERSON_AND_ORGANIZATION ( #264, #82 ) ;
#225 = COORDINATED_UNIVERSAL_TIME_OFFSET ( 1, 0, .AHEAD. ) ;
#226 = TOROIDAL_SURFACE ( 'NONE', #270, 4.200000000000000178, 0.2000000000000000111 ) ;
#227 = VERTEX_POINT ( 'NONE', #134 ) ;
#228 = MECHANICAL_CONTEXT ( 'NONE', #290, 'mechanical' ) ;
#229 = EDGE_CURVE ( 'NONE', #282, #61, #215, .T. ) ;
#230 = ORIENTED_EDGE ( 'NONE', *, *, #304, .T. ) ;
#231 = DIRECTION ( 'NONE',  ( -0.000000000000000000, -0.000000000000000000, -1.000000000000000000 ) ) ;
#232 = EDGE_CURVE ( 'NONE', #61, #67, #18, .T. ) ;
#233 = DIRECTION ( 'NONE',  ( -1.000000000000000000, 0.000000000000000000, 0.000000000000000000 ) ) ;
#234 = VERTEX_POINT ( 'NONE', #2 ) ;
#235 = DIRECTION ( 'NONE',  ( 0.000000000000000000, -1.000000000000000000, 0.000000000000000000 ) ) ;
#236 = DIRECTION ( 'NONE',  ( 0.000000000000000000, 0.000000000000000000, 1.000000000000000000 ) ) ;
#237 = ORIENTED_EDGE ( 'NONE', *, *, #100, .F. ) ;
#238 = DIRECTION ( 'NONE',  ( 1.000000000000000000, 0.000000000000000000, 0.000000000000000000 ) ) ;
#239 = MANIFOLD_SOLID_BREP ( 'Zaoblit1', #173 ) ;
#240 = ORIENTED_EDGE ( 'NONE', *, *, #166, .F. ) ;
#241 = EDGE_CURVE ( 'NONE', #282, #234, #158, .T. ) ;
#242 = CARTESIAN_POINT ( 'NONE',  ( -7.000000000000000000, 0.000000000000000000, 0.000000000000000000 ) ) ;
#243 = LINE ( 'NONE', #245, #212 ) ;
#244 = CIRCLE ( 'NONE', #145, 4.200000000000000178 ) ;
#245 = CARTESIAN_POINT ( 'NONE',  ( 7.000000000000000000, 8.572527594031473190E-16, 5.000000000000000000 ) ) ;
#246 = APPLICATION_PROTOCOL_DEFINITION ( 'international standard', 'config_control_design', 1994, #290 ) ;
#247 = AXIS2_PLACEMENT_3D ( 'NONE', #253, #231, #95 ) ;
#248 = PRODUCT_DEFINITION_FORMATION_WITH_SPECIFIED_SOURCE ( 'LIBOVOLNÝ', '', #55, .NOT_KNOWN. ) ;
#249 = DATE_AND_TIME ( #147, #63 ) ;
#250 = PRODUCT_DEFINITION ( 'NEZNÁMÝ', '', #248, #9 ) ;
#251 = AXIS2_PLACEMENT_3D ( 'NONE', #112, #163, #44 ) ;
#252 = ORIENTED_EDGE ( 'NONE', *, *, #229, .F. ) ;
#253 = CARTESIAN_POINT ( 'NONE',  ( 0.000000000000000000, 0.000000000000000000, 5.000000000000000000 ) ) ;
#254 = CIRCLE ( 'NONE', #92, 4.000000000000000000 ) ;
#255 = CC_DESIGN_DATE_AND_TIME_ASSIGNMENT ( #59, #220, ( #178 ) ) ;
#256 = DIRECTION ( 'NONE',  ( 0.000000000000000000, 0.000000000000000000, 1.000000000000000000 ) ) ;
#257 = ORIENTED_EDGE ( 'NONE', *, *, #229, .T. ) ;
#258 = CYLINDRICAL_SURFACE ( 'NONE', #56, 4.000000000000000000 ) ;
#259 = DIRECTION ( 'NONE',  ( 1.000000000000000000, 0.000000000000000000, 0.000000000000000000 ) ) ;
#260 = PRODUCT_RELATED_PRODUCT_CATEGORY ( 'detail', '', ( #55 ) ) ;
#261 = EDGE_LOOP ( 'NONE', ( #86, #183, #140, #237 ) ) ;
#262 = CARTESIAN_POINT ( 'NONE',  ( 4.000000000000000000, 4.898587196589412829E-16, 5.199999999999982414 ) ) ;
#263 = CIRCLE ( 'NONE', #75, 4.000000000000000000 ) ;
#264 = PERSON ( 'NEURÈENÝ', 'NEURÈENÝ', 'NEURÈENÝ', ('NEURÈENÝ'), ('NEURÈENÝ'), ('NEURÈENÝ') ) ;
#265 = CARTESIAN_POINT ( 'NONE',  ( -7.000000000000000000, 0.000000000000000000, 5.000000000000000000 ) ) ;
#266 = FACE_OUTER_BOUND ( 'NONE', #38, .T. ) ;
#267 = CARTESIAN_POINT ( 'NONE',  ( -4.000000000000000000, 0.000000000000000000, 405.0000000000000000 ) ) ;
#268 = APPROVAL_DATE_TIME ( #7, #6 ) ;
#269 = APPROVAL_DATE_TIME ( #296, #123 ) ;
#270 = AXIS2_PLACEMENT_3D ( 'NONE', #288, #256, #208 ) ;
#271 = COORDINATED_UNIVERSAL_TIME_OFFSET ( 1, 0, .AHEAD. ) ;
#272 = ADVANCED_FACE ( 'NONE', ( #194 ), #74, .T. ) ;
#273 = CALENDAR_DATE ( 2022, 7, 7 ) ;
#274 = VERTEX_POINT ( 'NONE', #242 ) ;
#275 = ORIENTED_EDGE ( 'NONE', *, *, #57, .F. ) ;
#276 = EDGE_LOOP ( 'NONE', ( #257, #209 ) ) ;
#277 = CARTESIAN_POINT ( 'NONE',  ( 0.000000000000000000, 0.000000000000000000, 0.000000000000000000 ) ) ;
#278 = CARTESIAN_POINT ( 'NONE',  ( 7.000000000000000000, 8.572527594031473190E-16, 5.000000000000000000 ) ) ;
#279 = ORIENTED_EDGE ( 'NONE', *, *, #51, .F. ) ;
#280 = ADVANCED_FACE ( 'NONE', ( #29 ), #302, .T. ) ;
#281 = CARTESIAN_POINT ( 'NONE',  ( 0.000000000000000000, 0.000000000000000000, 5.199999999999982414 ) ) ;
#282 = VERTEX_POINT ( 'NONE', #267 ) ;
#283 = AXIS2_PLACEMENT_3D ( 'NONE', #191, #136, #219 ) ;
#284 = APPROVAL_PERSON_ORGANIZATION ( #198, #72, #10 ) ;
#285 = DIRECTION ( 'NONE',  ( 1.000000000000000000, 0.000000000000000000, -0.000000000000000000 ) ) ;
#286 = DIRECTION ( 'NONE',  ( -1.000000000000000000, 0.000000000000000000, 0.000000000000000000 ) ) ;
#287 = ORIENTED_EDGE ( 'NONE', *, *, #103, .T. ) ;
#288 = CARTESIAN_POINT ( 'NONE',  ( 0.000000000000000000, 0.000000000000000000, 5.199999999999982414 ) ) ;
#289 = CIRCLE ( 'NONE', #50, 7.000000000000000000 ) ;
#290 = APPLICATION_CONTEXT ( 'configuration controlled 3d designs of mechanical parts and assemblies' ) ;
#291 = EDGE_CURVE ( 'NONE', #61, #282, #78, .T. ) ;
#292 =( NAMED_UNIT ( * ) SI_UNIT ( $, .STERADIAN. ) SOLID_ANGLE_UNIT ( ) );
#293 = APPROVAL_STATUS ( 'not_yet_approved' ) ;
#294 = AXIS2_PLACEMENT_3D ( 'NONE', #36, #76, #125 ) ;
#295 = ADVANCED_FACE ( 'NONE', ( #161 ), #258, .T. ) ;
#296 = DATE_AND_TIME ( #175, #28 ) ;
#297 = AXIS2_PLACEMENT_3D ( 'NONE', #91, #137, #27 ) ;
#298 = EDGE_LOOP ( 'NONE', ( #156, #252, #90, #202 ) ) ;
#299 = CALENDAR_DATE ( 2022, 7, 7 ) ;
#300 = AXIS2_PLACEMENT_3D ( 'NONE', #169, #192, #135 ) ;
#301 = ORIENTED_EDGE ( 'NONE', *, *, #100, .T. ) ;
#302 = CYLINDRICAL_SURFACE ( 'NONE', #35, 4.000000000000000000 ) ;
#303 = CARTESIAN_POINT ( 'NONE',  ( 0.000000000000000000, 0.000000000000000000, 5.199999999999982414 ) ) ;
#304 = EDGE_CURVE ( 'NONE', #89, #274, #168, .T. ) ;
#305 = ORIENTED_EDGE ( 'NONE', *, *, #232, .T. ) ;
#306 = ORIENTED_EDGE ( 'NONE', *, *, #151, .T. ) ;
#307 = EDGE_LOOP ( 'NONE', ( #287, #15 ) ) ;
ENDSEC;
END-ISO-10303-21;
