ISO-10303-21;
HEADER;
FILE_DESCRIPTION (( 'STEP AP203' ),
    '1' );
FILE_NAME ('5e63.STEP',
    '2022-07-07T12:51:35',
    ( '' ),
    ( '' ),
    'SwSTEP 2.0',
    'SolidWorks 2019',
    '' );
FILE_SCHEMA (( 'CONFIG_CONTROL_DESIGN' ));
ENDSEC;

DATA;
#1 = ORGANIZATION ( 'NEURÈENÝ', 'NEURÈENÝ', '' ) ;
#2 = COORDINATED_UNIVERSAL_TIME_OFFSET ( 1, 0, .AHEAD. ) ;
#3 = DIRECTION ( 'NONE',  ( 1.000000000000000000, 0.000000000000000000, 0.000000000000000000 ) ) ;
#4 = EDGE_CURVE ( 'NONE', #267, #39, #263, .T. ) ;
#5 = APPLICATION_PROTOCOL_DEFINITION ( 'international standard', 'config_control_design', 1994, #258 ) ;
#6 = VERTEX_POINT ( 'NONE', #216 ) ;
#7 = SECURITY_CLASSIFICATION ( '', '', #220 ) ;
#8 = ORIENTED_EDGE ( 'NONE', *, *, #282, .F. ) ;
#9 = CYLINDRICAL_SURFACE ( 'NONE', #253, 4.000000000000000000 ) ;
#10 = ORIENTED_EDGE ( 'NONE', *, *, #206, .F. ) ;
#11 = CARTESIAN_POINT ( 'NONE',  ( -2.000000000000000000, 0.000000000000000000, 103.0000000000000142 ) ) ;
#12 = ORIENTED_EDGE ( 'NONE', *, *, #170, .T. ) ;
#13 = DIRECTION ( 'NONE',  ( 1.000000000000000000, 0.000000000000000000, -0.000000000000000000 ) ) ;
#14 = CIRCLE ( 'NONE', #140, 2.200000000000000178 ) ;
#15 = CIRCLE ( 'NONE', #291, 4.000000000000000000 ) ;
#16 = FACE_OUTER_BOUND ( 'NONE', #270, .T. ) ;
#17 = DIRECTION ( 'NONE',  ( 0.000000000000000000, 0.000000000000000000, 1.000000000000000000 ) ) ;
#18 = CARTESIAN_POINT ( 'NONE',  ( 0.000000000000000000, 0.000000000000000000, 0.000000000000000000 ) ) ;
#19 = DIRECTION ( 'NONE',  ( -0.000000000000000000, -0.000000000000000000, -1.000000000000000000 ) ) ;
#20 = CIRCLE ( 'NONE', #231, 4.000000000000000000 ) ;
#21 = EDGE_CURVE ( 'NONE', #108, #6, #188, .T. ) ;
#22 = APPLICATION_CONTEXT ( 'configuration controlled 3d designs of mechanical parts and assemblies' ) ;
#23 = APPROVAL ( #215, 'NEURÈENÝ' ) ;
#24 = VECTOR ( 'NONE', #138, 1000.000000000000000 ) ;
#25 = PRODUCT_RELATED_PRODUCT_CATEGORY ( 'detail', '', ( #193 ) ) ;
#26 = APPROVAL_DATE_TIME ( #52, #23 ) ;
#27 = PLANE ( 'NONE',  #191 ) ;
#28 = DIRECTION ( 'NONE',  ( 1.000000000000000000, 0.000000000000000000, 0.000000000000000000 ) ) ;
#29 = AXIS2_PLACEMENT_3D ( 'NONE', #278, #235, #186 ) ;
#30 = PERSON_AND_ORGANIZATION_ROLE ( 'creator' ) ;
#31 = ADVANCED_FACE ( 'NONE', ( #287 ), #27, .T. ) ;
#32 = APPROVAL ( #81, 'NEURÈENÝ' ) ;
#33 = ORIENTED_EDGE ( 'NONE', *, *, #64, .F. ) ;
#34 = VERTEX_POINT ( 'NONE', #168 ) ;
#35 =( GEOMETRIC_REPRESENTATION_CONTEXT ( 3 ) GLOBAL_UNCERTAINTY_ASSIGNED_CONTEXT ( ( #300 ) ) GLOBAL_UNIT_ASSIGNED_CONTEXT ( ( #251, #179, #77 ) ) REPRESENTATION_CONTEXT ( 'NONE', 'WORKASPACE' ) );
#36 = CC_DESIGN_SECURITY_CLASSIFICATION ( #7, ( #70 ) ) ;
#37 = ORIENTED_EDGE ( 'NONE', *, *, #170, .F. ) ;
#38 = DIRECTION ( 'NONE',  ( -1.000000000000000000, 0.000000000000000000, 0.000000000000000000 ) ) ;
#39 = VERTEX_POINT ( 'NONE', #289 ) ;
#40 = DIRECTION ( 'NONE',  ( 1.000000000000000000, 0.000000000000000000, 0.000000000000000000 ) ) ;
#41 = EDGE_CURVE ( 'NONE', #267, #34, #144, .T. ) ;
#42 = CARTESIAN_POINT ( 'NONE',  ( 0.000000000000000000, 0.000000000000000000, 3.000000000000000000 ) ) ;
#43 = AXIS2_PLACEMENT_3D ( 'NONE', #219, #97, #281 ) ;
#44 = CC_DESIGN_APPROVAL ( #23, ( #67 ) ) ;
#45 = CYLINDRICAL_SURFACE ( 'NONE', #260, 2.000000000000000000 ) ;
#46 = ADVANCED_FACE ( 'NONE', ( #123 ), #53, .T. ) ;
#47 = AXIS2_PLACEMENT_3D ( 'NONE', #249, #271, #131 ) ;
#48 = CC_DESIGN_PERSON_AND_ORGANIZATION_ASSIGNMENT ( #101, #197, ( #7 ) ) ;
#49 = VECTOR ( 'NONE', #234, 1000.000000000000000 ) ;
#50 = PRODUCT_DEFINITION_SHAPE ( 'NONE', 'NONE',  #67 ) ;
#51 = APPROVAL_PERSON_ORGANIZATION ( #57, #222, #95 ) ;
#52 = DATE_AND_TIME ( #217, #283 ) ;
#53 = CYLINDRICAL_SURFACE ( 'NONE', #285, 2.000000000000000000 ) ;
#54 = DIRECTION ( 'NONE',  ( 1.000000000000000000, 0.000000000000000000, -0.000000000000000000 ) ) ;
#55 = ADVANCED_FACE ( 'NONE', ( #195 ), #82, .F. ) ;
#56 = APPLICATION_PROTOCOL_DEFINITION ( 'international standard', 'config_control_design', 1994, #22 ) ;
#57 = PERSON_AND_ORGANIZATION ( #203, #1 ) ;
#58 = ORIENTED_EDGE ( 'NONE', *, *, #301, .F. ) ;
#59 = ORIENTED_EDGE ( 'NONE', *, *, #21, .F. ) ;
#60 = ORIENTED_EDGE ( 'NONE', *, *, #98, .T. ) ;
#61 = DIRECTION ( 'NONE',  ( 1.000000000000000000, 0.000000000000000000, 0.000000000000000000 ) ) ;
#62 = ORIENTED_EDGE ( 'NONE', *, *, #269, .T. ) ;
#63 = CARTESIAN_POINT ( 'NONE',  ( 0.000000000000000000, 0.000000000000000000, 3.000000000000000000 ) ) ;
#64 = EDGE_CURVE ( 'NONE', #6, #200, #236, .T. ) ;
#65 = PLANE ( 'NONE',  #218 ) ;
#66 = DIRECTION ( 'NONE',  ( 1.000000000000000000, 0.000000000000000000, 0.000000000000000000 ) ) ;
#67 = PRODUCT_DEFINITION ( 'NEZNÁMÝ', '', #70, #72 ) ;
#68 = DIRECTION ( 'NONE',  ( 0.000000000000000000, -1.000000000000000000, 0.000000000000000000 ) ) ;
#69 = AXIS2_PLACEMENT_3D ( 'NONE', #135, #90, #157 ) ;
#70 = PRODUCT_DEFINITION_FORMATION_WITH_SPECIFIED_SOURCE ( 'LIBOVOLNÝ', '', #193, .NOT_KNOWN. ) ;
#71 = DIRECTION ( 'NONE',  ( 0.000000000000000000, 0.000000000000000000, 1.000000000000000000 ) ) ;
#72 = DESIGN_CONTEXT ( 'detailed design', #258, 'design' ) ;
#73 = CC_DESIGN_PERSON_AND_ORGANIZATION_ASSIGNMENT ( #221, #30, ( #70 ) ) ;
#74 = AXIS2_PLACEMENT_3D ( 'NONE', #96, #264, #194 ) ;
#75 = APPROVAL_DATE_TIME ( #290, #32 ) ;
#76 = TOROIDAL_SURFACE ( 'NONE', #29, 2.200000000000000178, 0.2000000000000000111 ) ;
#77 =( NAMED_UNIT ( * ) SI_UNIT ( $, .STERADIAN. ) SOLID_ANGLE_UNIT ( ) );
#78 = DIRECTION ( 'NONE',  ( 0.000000000000000000, 0.000000000000000000, 1.000000000000000000 ) ) ;
#79 = DATE_TIME_ROLE ( 'creation_date' ) ;
#80 = CARTESIAN_POINT ( 'NONE',  ( 0.000000000000000000, 0.000000000000000000, 103.0000000000000142 ) ) ;
#81 = APPROVAL_STATUS ( 'not_yet_approved' ) ;
#82 = TOROIDAL_SURFACE ( 'NONE', #43, 2.200000000000000178, 0.2000000000000000111 ) ;
#83 = EDGE_LOOP ( 'NONE', ( #152, #248 ) ) ;
#84 = ORIENTED_EDGE ( 'NONE', *, *, #107, .F. ) ;
#85 = ORIENTED_EDGE ( 'NONE', *, *, #272, .F. ) ;
#86 = ORIENTED_EDGE ( 'NONE', *, *, #151, .F. ) ;
#87 = CYLINDRICAL_SURFACE ( 'NONE', #124, 4.000000000000000000 ) ;
#88 = CIRCLE ( 'NONE', #99, 2.000000000000000000 ) ;
#89 = EDGE_CURVE ( 'NONE', #178, #39, #15, .T. ) ;
#90 = DIRECTION ( 'NONE',  ( 0.000000000000000000, 0.000000000000000000, 1.000000000000000000 ) ) ;
#91 = LINE ( 'NONE', #115, #49 ) ;
#92 = DIRECTION ( 'NONE',  ( 1.000000000000000000, 0.000000000000000000, 0.000000000000000000 ) ) ;
#93 = DATE_AND_TIME ( #237, #286 ) ;
#94 = AXIS2_PLACEMENT_3D ( 'NONE', #239, #160, #40 ) ;
#95 = APPROVAL_ROLE ( '' ) ;
#96 = CARTESIAN_POINT ( 'NONE',  ( 0.000000000000000000, 0.000000000000000000, 0.000000000000000000 ) ) ;
#97 = DIRECTION ( 'NONE',  ( 0.000000000000000000, 0.000000000000000000, 1.000000000000000000 ) ) ;
#98 = EDGE_CURVE ( 'NONE', #174, #108, #91, .T. ) ;
#99 = AXIS2_PLACEMENT_3D ( 'NONE', #181, #182, #113 ) ;
#100 = DIRECTION ( 'NONE',  ( -0.000000000000000000, -0.000000000000000000, -1.000000000000000000 ) ) ;
#101 = PERSON_AND_ORGANIZATION ( #203, #1 ) ;
#102 = ORIENTED_EDGE ( 'NONE', *, *, #301, .T. ) ;
#103 = LOCAL_TIME ( 14, 51, 35.00000000000000000, #150 ) ;
#104 = ORIENTED_EDGE ( 'NONE', *, *, #187, .F. ) ;
#105 = ORIENTED_EDGE ( 'NONE', *, *, #282, .T. ) ;
#106 = FACE_OUTER_BOUND ( 'NONE', #83, .T. ) ;
#107 = EDGE_CURVE ( 'NONE', #39, #178, #224, .T. ) ;
#108 = VERTEX_POINT ( 'NONE', #163 ) ;
#109 = CARTESIAN_POINT ( 'NONE',  ( 2.000000000000000000, 2.449293598294706414E-16, 103.0000000000000142 ) ) ;
#110 = ORIENTED_EDGE ( 'NONE', *, *, #272, .T. ) ;
#111 = CARTESIAN_POINT ( 'NONE',  ( 0.000000000000000000, 0.000000000000000000, 0.000000000000000000 ) ) ;
#112 = APPROVAL_PERSON_ORGANIZATION ( #240, #23, #306 ) ;
#113 = DIRECTION ( 'NONE',  ( 1.000000000000000000, 0.000000000000000000, 0.000000000000000000 ) ) ;
#114 = FACE_OUTER_BOUND ( 'NONE', #176, .T. ) ;
#115 = CARTESIAN_POINT ( 'NONE',  ( -2.000000000000000000, 0.000000000000000000, 103.0000000000000142 ) ) ;
#116 = LINE ( 'NONE', #209, #24 ) ;
#117 = LOCAL_TIME ( 14, 51, 35.00000000000000000, #2 ) ;
#118 = AXIS2_PLACEMENT_3D ( 'NONE', #208, #17, #184 ) ;
#119 = DATE_TIME_ROLE ( 'classification_date' ) ;
#120 = MECHANICAL_CONTEXT ( 'NONE', #22, 'mechanical' ) ;
#121 = DIRECTION ( 'NONE',  ( -0.000000000000000000, -0.000000000000000000, -1.000000000000000000 ) ) ;
#122 = COORDINATED_UNIVERSAL_TIME_OFFSET ( 1, 0, .AHEAD. ) ;
#123 = FACE_OUTER_BOUND ( 'NONE', #129, .T. ) ;
#124 = AXIS2_PLACEMENT_3D ( 'NONE', #42, #296, #38 ) ;
#125 = PERSON_AND_ORGANIZATION ( #203, #1 ) ;
#126 = DATE_AND_TIME ( #288, #117 ) ;
#127 = ORIENTED_EDGE ( 'NONE', *, *, #107, .T. ) ;
#128 = CIRCLE ( 'NONE', #94, 2.200000000000000178 ) ;
#129 = EDGE_LOOP ( 'NONE', ( #85, #201, #60, #199 ) ) ;
#130 = ORIENTED_EDGE ( 'NONE', *, *, #143, .T. ) ;
#131 = DIRECTION ( 'NONE',  ( -1.000000000000000000, 1.224646799147353207E-16, 0.000000000000000000 ) ) ;
#132 = EDGE_LOOP ( 'NONE', ( #37, #58, #229, #86 ) ) ;
#133 = DIRECTION ( 'NONE',  ( 0.000000000000000000, 0.000000000000000000, 1.000000000000000000 ) ) ;
#134 = CLOSED_SHELL ( 'NONE', ( #141, #142, #196, #183, #189, #164, #46, #31, #55 ) ) ;
#135 = CARTESIAN_POINT ( 'NONE',  ( 0.000000000000000000, 0.000000000000000000, 3.199999999999994404 ) ) ;
#136 = LOCAL_TIME ( 14, 51, 35.00000000000000000, #172 ) ;
#137 = DIRECTION ( 'NONE',  ( -0.000000000000000000, -0.000000000000000000, -1.000000000000000000 ) ) ;
#138 = DIRECTION ( 'NONE',  ( -0.000000000000000000, -0.000000000000000000, -1.000000000000000000 ) ) ;
#139 = FACE_OUTER_BOUND ( 'NONE', #225, .T. ) ;
#140 = AXIS2_PLACEMENT_3D ( 'NONE', #63, #137, #66 ) ;
#141 = ADVANCED_FACE ( 'NONE', ( #255 ), #76, .F. ) ;
#142 = ADVANCED_FACE ( 'NONE', ( #139 ), #45, .T. ) ;
#143 = EDGE_CURVE ( 'NONE', #34, #178, #116, .T. ) ;
#144 = CIRCLE ( 'NONE', #303, 4.000000000000000000 ) ;
#145 = APPROVAL_DATE_TIME ( #93, #222 ) ;
#146 = CARTESIAN_POINT ( 'NONE',  ( 0.000000000000000000, 0.000000000000000000, 103.0000000000000142 ) ) ;
#147 = ADVANCED_BREP_SHAPE_REPRESENTATION ( '5e63', ( #242, #74 ), #35 ) ;
#148 = PERSON_AND_ORGANIZATION_ROLE ( 'design_owner' ) ;
#149 = CARTESIAN_POINT ( 'NONE',  ( 0.000000000000000000, 0.000000000000000000, 3.000000000000000000 ) ) ;
#150 = COORDINATED_UNIVERSAL_TIME_OFFSET ( 1, 0, .AHEAD. ) ;
#151 = EDGE_CURVE ( 'NONE', #154, #200, #128, .T. ) ;
#152 = ORIENTED_EDGE ( 'NONE', *, *, #41, .T. ) ;
#153 = AXIS2_PLACEMENT_3D ( 'NONE', #211, #71, #92 ) ;
#154 = VERTEX_POINT ( 'NONE', #155 ) ;
#155 = CARTESIAN_POINT ( 'NONE',  ( -2.200000000000000178, 2.694222958124177006E-16, 2.999999999999997335 ) ) ;
#156 = EDGE_LOOP ( 'NONE', ( #105, #223 ) ) ;
#157 = DIRECTION ( 'NONE',  ( 1.000000000000000000, 0.000000000000000000, 0.000000000000000000 ) ) ;
#158 = LINE ( 'NONE', #276, #165 ) ;
#159 = VECTOR ( 'NONE', #121, 1000.000000000000000 ) ;
#160 = DIRECTION ( 'NONE',  ( -0.000000000000000000, -0.000000000000000000, -1.000000000000000000 ) ) ;
#161 = CC_DESIGN_APPROVAL ( #32, ( #70 ) ) ;
#162 = DIRECTION ( 'NONE',  ( 0.000000000000000000, 0.000000000000000000, -1.000000000000000000 ) ) ;
#163 = CARTESIAN_POINT ( 'NONE',  ( -2.000000000000000000, 0.000000000000000000, 3.199999999999994404 ) ) ;
#164 = ADVANCED_FACE ( 'NONE', ( #114 ), #233, .F. ) ;
#165 = VECTOR ( 'NONE', #210, 1000.000000000000000 ) ;
#166 = CC_DESIGN_DATE_AND_TIME_ASSIGNMENT ( #167, #119, ( #7 ) ) ;
#167 = DATE_AND_TIME ( #265, #136 ) ;
#168 = CARTESIAN_POINT ( 'NONE',  ( 4.000000000000000000, 4.898587196589412829E-16, 3.000000000000000000 ) ) ;
#169 = PERSON_AND_ORGANIZATION ( #203, #1 ) ;
#170 = EDGE_CURVE ( 'NONE', #108, #154, #266, .T. ) ;
#171 = DIRECTION ( 'NONE',  ( -1.000000000000000000, 0.000000000000000000, 0.000000000000000000 ) ) ;
#172 = COORDINATED_UNIVERSAL_TIME_OFFSET ( 1, 0, .AHEAD. ) ;
#173 = AXIS2_PLACEMENT_3D ( 'NONE', #299, #68, #162 ) ;
#174 = VERTEX_POINT ( 'NONE', #11 ) ;
#175 = CC_DESIGN_PERSON_AND_ORGANIZATION_ASSIGNMENT ( #125, #244, ( #70 ) ) ;
#176 = EDGE_LOOP ( 'NONE', ( #84, #292 ) ) ;
#177 = ORIENTED_EDGE ( 'NONE', *, *, #89, .T. ) ;
#178 = VERTEX_POINT ( 'NONE', #252 ) ;
#179 =( NAMED_UNIT ( * ) PLANE_ANGLE_UNIT ( ) SI_UNIT ( $, .RADIAN. ) );
#180 = VERTEX_POINT ( 'NONE', #109 ) ;
#181 = CARTESIAN_POINT ( 'NONE',  ( 0.000000000000000000, 0.000000000000000000, 103.0000000000000142 ) ) ;
#182 = DIRECTION ( 'NONE',  ( 0.000000000000000000, 0.000000000000000000, 1.000000000000000000 ) ) ;
#183 = ADVANCED_FACE ( 'NONE', ( #226 ), #87, .T. ) ;
#184 = DIRECTION ( 'NONE',  ( 1.000000000000000000, 0.000000000000000000, 0.000000000000000000 ) ) ;
#185 = DIRECTION ( 'NONE',  ( -1.000000000000000000, 0.000000000000000000, 0.000000000000000000 ) ) ;
#186 = DIRECTION ( 'NONE',  ( 1.000000000000000000, 0.000000000000000000, 0.000000000000000000 ) ) ;
#187 = EDGE_CURVE ( 'NONE', #34, #267, #20, .T. ) ;
#188 = CIRCLE ( 'NONE', #279, 2.000000000000000000 ) ;
#189 = ADVANCED_FACE ( 'NONE', ( #277, #106 ), #65, .T. ) ;
#190 = COORDINATED_UNIVERSAL_TIME_OFFSET ( 1, 0, .AHEAD. ) ;
#191 = AXIS2_PLACEMENT_3D ( 'NONE', #146, #307, #54 ) ;
#192 = CARTESIAN_POINT ( 'NONE',  ( -4.000000000000000000, 0.000000000000000000, 3.000000000000000000 ) ) ;
#193 = PRODUCT ( '5e63', '5e63', '', ( #120 ) ) ;
#194 = DIRECTION ( 'NONE',  ( 1.000000000000000000, 0.000000000000000000, 0.000000000000000000 ) ) ;
#195 = FACE_OUTER_BOUND ( 'NONE', #132, .T. ) ;
#196 = ADVANCED_FACE ( 'NONE', ( #16 ), #9, .T. ) ;
#197 = PERSON_AND_ORGANIZATION_ROLE ( 'classification_officer' ) ;
#198 = CIRCLE ( 'NONE', #69, 2.000000000000000000 ) ;
#199 = ORIENTED_EDGE ( 'NONE', *, *, #21, .T. ) ;
#200 = VERTEX_POINT ( 'NONE', #230 ) ;
#201 = ORIENTED_EDGE ( 'NONE', *, *, #269, .F. ) ;
#202 = DIRECTION ( 'NONE',  ( 0.000000000000000000, 0.000000000000000000, 1.000000000000000000 ) ) ;
#203 = PERSON ( 'NEURÈENÝ', 'NEURÈENÝ', 'NEURÈENÝ', ('NEURÈENÝ'), ('NEURÈENÝ'), ('NEURÈENÝ') ) ;
#204 = EDGE_LOOP ( 'NONE', ( #62, #227 ) ) ;
#205 = DIRECTION ( 'NONE',  ( -0.000000000000000000, -0.000000000000000000, -1.000000000000000000 ) ) ;
#206 = EDGE_CURVE ( 'NONE', #180, #174, #88, .T. ) ;
#207 = DIRECTION ( 'NONE',  ( 0.000000000000000000, 0.000000000000000000, 1.000000000000000000 ) ) ;
#208 = CARTESIAN_POINT ( 'NONE',  ( 0.000000000000000000, 0.000000000000000000, 103.0000000000000142 ) ) ;
#209 = CARTESIAN_POINT ( 'NONE',  ( 4.000000000000000000, 4.898587196589412829E-16, 3.000000000000000000 ) ) ;
#210 = DIRECTION ( 'NONE',  ( -0.000000000000000000, -0.000000000000000000, -1.000000000000000000 ) ) ;
#211 = CARTESIAN_POINT ( 'NONE',  ( 0.000000000000000000, 0.000000000000000000, 0.000000000000000000 ) ) ;
#212 = DIRECTION ( 'NONE',  ( 0.000000000000000000, 0.000000000000000000, 1.000000000000000000 ) ) ;
#213 = SHAPE_DEFINITION_REPRESENTATION ( #50, #147 ) ;
#214 = APPROVAL_STATUS ( 'not_yet_approved' ) ;
#215 = APPROVAL_STATUS ( 'not_yet_approved' ) ;
#216 = CARTESIAN_POINT ( 'NONE',  ( 2.000000000000000000, 2.449293598294706414E-16, 3.199999999999994404 ) ) ;
#217 = CALENDAR_DATE ( 2022, 7, 7 ) ;
#218 = AXIS2_PLACEMENT_3D ( 'NONE', #232, #207, #13 ) ;
#219 = CARTESIAN_POINT ( 'NONE',  ( 0.000000000000000000, 0.000000000000000000, 3.199999999999994404 ) ) ;
#220 = SECURITY_CLASSIFICATION_LEVEL ( 'unclassified' ) ;
#221 = PERSON_AND_ORGANIZATION ( #203, #1 ) ;
#222 = APPROVAL ( #214, 'NEURÈENÝ' ) ;
#223 = ORIENTED_EDGE ( 'NONE', *, *, #151, .T. ) ;
#224 = CIRCLE ( 'NONE', #153, 4.000000000000000000 ) ;
#225 = EDGE_LOOP ( 'NONE', ( #10, #110, #102, #294 ) ) ;
#226 = FACE_OUTER_BOUND ( 'NONE', #245, .T. ) ;
#227 = ORIENTED_EDGE ( 'NONE', *, *, #206, .T. ) ;
#228 = CARTESIAN_POINT ( 'NONE',  ( 0.000000000000000000, 0.000000000000000000, 3.000000000000000000 ) ) ;
#229 = ORIENTED_EDGE ( 'NONE', *, *, #64, .T. ) ;
#230 = CARTESIAN_POINT ( 'NONE',  ( 2.200000000000000178, 0.000000000000000000, 2.999999999999997335 ) ) ;
#231 = AXIS2_PLACEMENT_3D ( 'NONE', #254, #133, #61 ) ;
#232 = CARTESIAN_POINT ( 'NONE',  ( 0.000000000000000000, 0.000000000000000000, 3.000000000000000000 ) ) ;
#233 = PLANE ( 'NONE',  #247 ) ;
#234 = DIRECTION ( 'NONE',  ( -0.000000000000000000, -0.000000000000000000, -1.000000000000000000 ) ) ;
#235 = DIRECTION ( 'NONE',  ( 0.000000000000000000, 0.000000000000000000, 1.000000000000000000 ) ) ;
#236 = CIRCLE ( 'NONE', #173, 0.2000000000000000944 ) ;
#237 = CALENDAR_DATE ( 2022, 7, 7 ) ;
#238 = PERSON_AND_ORGANIZATION ( #203, #1 ) ;
#239 = CARTESIAN_POINT ( 'NONE',  ( 0.000000000000000000, 0.000000000000000000, 3.000000000000000000 ) ) ;
#240 = PERSON_AND_ORGANIZATION ( #203, #1 ) ;
#241 = DIRECTION ( 'NONE',  ( 0.000000000000000000, 0.000000000000000000, 1.000000000000000000 ) ) ;
#242 = MANIFOLD_SOLID_BREP ( 'Zaoblit1', #134 ) ;
#243 = CALENDAR_DATE ( 2022, 7, 7 ) ;
#244 = PERSON_AND_ORGANIZATION_ROLE ( 'design_supplier' ) ;
#245 = EDGE_LOOP ( 'NONE', ( #273, #246, #250, #127 ) ) ;
#246 = ORIENTED_EDGE ( 'NONE', *, *, #41, .F. ) ;
#247 = AXIS2_PLACEMENT_3D ( 'NONE', #111, #202, #274 ) ;
#248 = ORIENTED_EDGE ( 'NONE', *, *, #187, .T. ) ;
#249 = CARTESIAN_POINT ( 'NONE',  ( -2.200000000000000178, 2.694222958124177006E-16, 3.199999999999994404 ) ) ;
#250 = ORIENTED_EDGE ( 'NONE', *, *, #4, .T. ) ;
#251 =( LENGTH_UNIT ( ) NAMED_UNIT ( * ) SI_UNIT ( .MILLI., .METRE. ) );
#252 = CARTESIAN_POINT ( 'NONE',  ( 4.000000000000000000, 4.898587196589412829E-16, 0.000000000000000000 ) ) ;
#253 = AXIS2_PLACEMENT_3D ( 'NONE', #228, #205, #297 ) ;
#254 = CARTESIAN_POINT ( 'NONE',  ( 0.000000000000000000, 0.000000000000000000, 3.000000000000000000 ) ) ;
#255 = FACE_OUTER_BOUND ( 'NONE', #293, .T. ) ;
#256 = DIRECTION ( 'NONE',  ( 1.000000000000000000, 0.000000000000000000, 0.000000000000000000 ) ) ;
#257 = CIRCLE ( 'NONE', #118, 2.000000000000000000 ) ;
#258 = APPLICATION_CONTEXT ( 'configuration controlled 3d designs of mechanical parts and assemblies' ) ;
#259 = CC_DESIGN_PERSON_AND_ORGANIZATION_ASSIGNMENT ( #305, #148, ( #193 ) ) ;
#260 = AXIS2_PLACEMENT_3D ( 'NONE', #298, #19, #185 ) ;
#261 = PERSON_AND_ORGANIZATION_ROLE ( 'creator' ) ;
#262 = CARTESIAN_POINT ( 'NONE',  ( 0.000000000000000000, 0.000000000000000000, 3.199999999999994404 ) ) ;
#263 = LINE ( 'NONE', #192, #159 ) ;
#264 = DIRECTION ( 'NONE',  ( 0.000000000000000000, 0.000000000000000000, 1.000000000000000000 ) ) ;
#265 = CALENDAR_DATE ( 2022, 7, 7 ) ;
#266 = CIRCLE ( 'NONE', #47, 0.2000000000000000944 ) ;
#267 = VERTEX_POINT ( 'NONE', #295 ) ;
#268 = ORIENTED_EDGE ( 'NONE', *, *, #4, .F. ) ;
#269 = EDGE_CURVE ( 'NONE', #174, #180, #257, .T. ) ;
#270 = EDGE_LOOP ( 'NONE', ( #104, #130, #177, #268 ) ) ;
#271 = DIRECTION ( 'NONE',  ( 1.224646799147353207E-16, 1.000000000000000000, -0.000000000000000000 ) ) ;
#272 = EDGE_CURVE ( 'NONE', #180, #6, #158, .T. ) ;
#273 = ORIENTED_EDGE ( 'NONE', *, *, #143, .F. ) ;
#274 = DIRECTION ( 'NONE',  ( 1.000000000000000000, 0.000000000000000000, -0.000000000000000000 ) ) ;
#275 = CC_DESIGN_PERSON_AND_ORGANIZATION_ASSIGNMENT ( #238, #261, ( #67 ) ) ;
#276 = CARTESIAN_POINT ( 'NONE',  ( 2.000000000000000000, 2.449293598294706414E-16, 103.0000000000000142 ) ) ;
#277 = FACE_BOUND ( 'NONE', #156, .T. ) ;
#278 = CARTESIAN_POINT ( 'NONE',  ( 0.000000000000000000, 0.000000000000000000, 3.199999999999994404 ) ) ;
#279 = AXIS2_PLACEMENT_3D ( 'NONE', #262, #78, #3 ) ;
#280 = APPROVAL_PERSON_ORGANIZATION ( #169, #32, #284 ) ;
#281 = DIRECTION ( 'NONE',  ( 1.000000000000000000, 0.000000000000000000, 0.000000000000000000 ) ) ;
#282 = EDGE_CURVE ( 'NONE', #200, #154, #14, .T. ) ;
#283 = LOCAL_TIME ( 14, 51, 35.00000000000000000, #122 ) ;
#284 = APPROVAL_ROLE ( '' ) ;
#285 = AXIS2_PLACEMENT_3D ( 'NONE', #80, #100, #171 ) ;
#286 = LOCAL_TIME ( 14, 51, 35.00000000000000000, #190 ) ;
#287 = FACE_OUTER_BOUND ( 'NONE', #204, .T. ) ;
#288 = CALENDAR_DATE ( 2022, 7, 7 ) ;
#289 = CARTESIAN_POINT ( 'NONE',  ( -4.000000000000000000, 0.000000000000000000, 0.000000000000000000 ) ) ;
#290 = DATE_AND_TIME ( #243, #103 ) ;
#291 = AXIS2_PLACEMENT_3D ( 'NONE', #18, #212, #256 ) ;
#292 = ORIENTED_EDGE ( 'NONE', *, *, #89, .F. ) ;
#293 = EDGE_LOOP ( 'NONE', ( #59, #12, #8, #33 ) ) ;
#294 = ORIENTED_EDGE ( 'NONE', *, *, #98, .F. ) ;
#295 = CARTESIAN_POINT ( 'NONE',  ( -4.000000000000000000, 0.000000000000000000, 3.000000000000000000 ) ) ;
#296 = DIRECTION ( 'NONE',  ( -0.000000000000000000, -0.000000000000000000, -1.000000000000000000 ) ) ;
#297 = DIRECTION ( 'NONE',  ( -1.000000000000000000, 0.000000000000000000, 0.000000000000000000 ) ) ;
#298 = CARTESIAN_POINT ( 'NONE',  ( 0.000000000000000000, 0.000000000000000000, 103.0000000000000142 ) ) ;
#299 = CARTESIAN_POINT ( 'NONE',  ( 2.200000000000000178, 0.000000000000000000, 3.199999999999994404 ) ) ;
#300 = UNCERTAINTY_MEASURE_WITH_UNIT (LENGTH_MEASURE( 1.000000000000000082E-05 ), #251, 'distance_accuracy_value', 'NONE');
#301 = EDGE_CURVE ( 'NONE', #6, #108, #198, .T. ) ;
#302 = CC_DESIGN_DATE_AND_TIME_ASSIGNMENT ( #126, #79, ( #67 ) ) ;
#303 = AXIS2_PLACEMENT_3D ( 'NONE', #149, #241, #28 ) ;
#304 = CC_DESIGN_APPROVAL ( #222, ( #7 ) ) ;
#305 = PERSON_AND_ORGANIZATION ( #203, #1 ) ;
#306 = APPROVAL_ROLE ( '' ) ;
#307 = DIRECTION ( 'NONE',  ( 0.000000000000000000, 0.000000000000000000, 1.000000000000000000 ) ) ;
ENDSEC;
END-ISO-10303-21;
