ISO-10303-21;
HEADER;
FILE_DESCRIPTION (( 'STEP AP203' ),
    '1' );
FILE_NAME ('1389.STEP',
    '2022-07-07T12:38:23',
    ( '' ),
    ( '' ),
    'SwSTEP 2.0',
    'SolidWorks 2019',
    '' );
FILE_SCHEMA (( 'CONFIG_CONTROL_DESIGN' ));
ENDSEC;

DATA;
#1 = CC_DESIGN_PERSON_AND_ORGANIZATION_ASSIGNMENT ( #171, #95, ( #257 ) ) ;
#2 = DATE_AND_TIME ( #214, #251 ) ;
#3 = LOCAL_TIME ( 14, 38, 23.00000000000000000, #188 ) ;
#4 = EDGE_LOOP ( 'NONE', ( #291, #58, #68, #8 ) ) ;
#5 = ORIENTED_EDGE ( 'NONE', *, *, #219, .F. ) ;
#6 = EDGE_LOOP ( 'NONE', ( #28, #118, #78, #278 ) ) ;
#7 = PRODUCT_RELATED_PRODUCT_CATEGORY ( 'detail', '', ( #59 ) ) ;
#8 = ORIENTED_EDGE ( 'NONE', *, *, #111, .F. ) ;
#9 = CIRCLE ( 'NONE', #182, 3.450000000000000178 ) ;
#10 = DIRECTION ( 'NONE',  ( 1.000000000000000000, 0.000000000000000000, -0.000000000000000000 ) ) ;
#11 = DIRECTION ( 'NONE',  ( -1.000000000000000000, 0.000000000000000000, 0.000000000000000000 ) ) ;
#12 = FACE_BOUND ( 'NONE', #102, .T. ) ;
#13 = CARTESIAN_POINT ( 'NONE',  ( 0.000000000000000000, 0.000000000000000000, 0.000000000000000000 ) ) ;
#14 = DIRECTION ( 'NONE',  ( 1.000000000000000000, 0.000000000000000000, 0.000000000000000000 ) ) ;
#15 = CARTESIAN_POINT ( 'NONE',  ( 0.000000000000000000, 0.000000000000000000, 5.199999999999982414 ) ) ;
#16 = APPROVAL_PERSON_ORGANIZATION ( #259, #107, #142 ) ;
#17 = ORIENTED_EDGE ( 'NONE', *, *, #174, .T. ) ;
#18 = AXIS2_PLACEMENT_3D ( 'NONE', #119, #93, #205 ) ;
#19 = DIRECTION ( 'NONE',  ( 0.000000000000000000, 0.000000000000000000, 1.000000000000000000 ) ) ;
#20 = ORIENTED_EDGE ( 'NONE', *, *, #166, .F. ) ;
#21 = ADVANCED_FACE ( 'NONE', ( #12, #176 ), #270, .T. ) ;
#22 = CARTESIAN_POINT ( 'NONE',  ( 0.000000000000000000, 0.000000000000000000, 5.000000000000000000 ) ) ;
#23 = CALENDAR_DATE ( 2022, 7, 7 ) ;
#24 = PERSON ( 'NEURÈENÝ', 'NEURÈENÝ', 'NEURÈENÝ', ('NEURÈENÝ'), ('NEURÈENÝ'), ('NEURÈENÝ') ) ;
#25 = AXIS2_PLACEMENT_3D ( 'NONE', #206, #183, #67 ) ;
#26 = SHAPE_DEFINITION_REPRESENTATION ( #290, #80 ) ;
#27 = APPLICATION_PROTOCOL_DEFINITION ( 'international standard', 'config_control_design', 1994, #158 ) ;
#28 = ORIENTED_EDGE ( 'NONE', *, *, #55, .F. ) ;
#29 = VERTEX_POINT ( 'NONE', #79 ) ;
#30 = AXIS2_PLACEMENT_3D ( 'NONE', #255, #40, #184 ) ;
#31 = DATE_TIME_ROLE ( 'creation_date' ) ;
#32 = CIRCLE ( 'NONE', #262, 6.000000000000000888 ) ;
#33 = VERTEX_POINT ( 'NONE', #112 ) ;
#34 = ADVANCED_FACE ( 'NONE', ( #246 ), #266, .T. ) ;
#35 = CARTESIAN_POINT ( 'NONE',  ( 0.000000000000000000, 0.000000000000000000, 5.000000000000000000 ) ) ;
#36 = FACE_OUTER_BOUND ( 'NONE', #144, .T. ) ;
#37 = CARTESIAN_POINT ( 'NONE',  ( 0.000000000000000000, 0.000000000000000000, 5.000000000000000000 ) ) ;
#38 = MANIFOLD_SOLID_BREP ( 'Zaoblit1', #143 ) ;
#39 = CARTESIAN_POINT ( 'NONE',  ( 3.450000000000000178, 0.000000000000000000, 4.999999999999991118 ) ) ;
#40 = DIRECTION ( 'NONE',  ( 0.000000000000000000, 0.000000000000000000, 1.000000000000000000 ) ) ;
#41 = CC_DESIGN_APPROVAL ( #100, ( #98 ) ) ;
#42 = CARTESIAN_POINT ( 'NONE',  ( -3.450000000000000178, 4.225031457058368824E-16, 4.999999999999991118 ) ) ;
#43 = DIRECTION ( 'NONE',  ( 0.000000000000000000, 0.000000000000000000, 1.000000000000000000 ) ) ;
#44 = ORIENTED_EDGE ( 'NONE', *, *, #272, .F. ) ;
#45 = DIRECTION ( 'NONE',  ( 1.000000000000000000, 0.000000000000000000, -0.000000000000000000 ) ) ;
#46 = AXIS2_PLACEMENT_3D ( 'NONE', #35, #288, #128 ) ;
#47 = FACE_OUTER_BOUND ( 'NONE', #207, .T. ) ;
#48 = COORDINATED_UNIVERSAL_TIME_OFFSET ( 1, 0, .AHEAD. ) ;
#49 = APPROVAL_STATUS ( 'not_yet_approved' ) ;
#50 = DIRECTION ( 'NONE',  ( 0.000000000000000000, 0.000000000000000000, 1.000000000000000000 ) ) ;
#51 = ADVANCED_FACE ( 'NONE', ( #36 ), #131, .T. ) ;
#52 = EDGE_LOOP ( 'NONE', ( #117, #248, #175, #103 ) ) ;
#53 = AXIS2_PLACEMENT_3D ( 'NONE', #56, #224, #10 ) ;
#54 = CALENDAR_DATE ( 2022, 7, 7 ) ;
#55 = EDGE_CURVE ( 'NONE', #220, #267, #226, .T. ) ;
#56 = CARTESIAN_POINT ( 'NONE',  ( 0.000000000000000000, 0.000000000000000000, 505.0000000000000000 ) ) ;
#57 = CARTESIAN_POINT ( 'NONE',  ( 0.000000000000000000, 0.000000000000000000, 5.000000000000000000 ) ) ;
#58 = ORIENTED_EDGE ( 'NONE', *, *, #219, .T. ) ;
#59 = PRODUCT ( '1389', '1389', '', ( #260 ) ) ;
#60 = DIRECTION ( 'NONE',  ( -0.000000000000000000, -0.000000000000000000, -1.000000000000000000 ) ) ;
#61 = CIRCLE ( 'NONE', #197, 3.250000000000000444 ) ;
#62 = DIRECTION ( 'NONE',  ( -0.000000000000000000, -0.000000000000000000, -1.000000000000000000 ) ) ;
#63 = CARTESIAN_POINT ( 'NONE',  ( 0.000000000000000000, 0.000000000000000000, 5.000000000000000000 ) ) ;
#64 = CC_DESIGN_DATE_AND_TIME_ASSIGNMENT ( #72, #168, ( #257 ) ) ;
#65 = FACE_OUTER_BOUND ( 'NONE', #6, .T. ) ;
#66 = DIRECTION ( 'NONE',  ( 0.000000000000000000, 0.000000000000000000, 1.000000000000000000 ) ) ;
#67 = DIRECTION ( 'NONE',  ( 0.000000000000000000, 0.000000000000000000, -1.000000000000000000 ) ) ;
#68 = ORIENTED_EDGE ( 'NONE', *, *, #170, .T. ) ;
#69 = DIRECTION ( 'NONE',  ( 1.000000000000000000, 0.000000000000000000, 0.000000000000000000 ) ) ;
#70 = AXIS2_PLACEMENT_3D ( 'NONE', #181, #19, #274 ) ;
#71 = VERTEX_POINT ( 'NONE', #199 ) ;
#72 = DATE_AND_TIME ( #281, #3 ) ;
#73 = EDGE_CURVE ( 'NONE', #71, #173, #222, .T. ) ;
#74 = PERSON_AND_ORGANIZATION ( #24, #192 ) ;
#75 = DIRECTION ( 'NONE',  ( 1.000000000000000000, 0.000000000000000000, 0.000000000000000000 ) ) ;
#76 = ADVANCED_FACE ( 'NONE', ( #177 ), #156, .T. ) ;
#77 = AXIS2_PLACEMENT_3D ( 'NONE', #269, #151, #108 ) ;
#78 = ORIENTED_EDGE ( 'NONE', *, *, #249, .T. ) ;
#79 = CARTESIAN_POINT ( 'NONE',  ( 3.250000000000000444, 3.980102097228898231E-16, 5.199999999999982414 ) ) ;
#80 = ADVANCED_BREP_SHAPE_REPRESENTATION ( '1389', ( #38, #160 ), #110 ) ;
#81 = ORIENTED_EDGE ( 'NONE', *, *, #195, .T. ) ;
#82 = ORIENTED_EDGE ( 'NONE', *, *, #204, .F. ) ;
#83 = LOCAL_TIME ( 14, 38, 23.00000000000000000, #216 ) ;
#84 = LINE ( 'NONE', #271, #244 ) ;
#85 = CARTESIAN_POINT ( 'NONE',  ( 6.000000000000000888, 7.347880794884120722E-16, 0.000000000000000000 ) ) ;
#86 = EDGE_CURVE ( 'NONE', #164, #185, #180, .T. ) ;
#87 = AXIS2_PLACEMENT_3D ( 'NONE', #57, #60, #11 ) ;
#88 = APPLICATION_CONTEXT ( 'configuration controlled 3d designs of mechanical parts and assemblies' ) ;
#89 = CARTESIAN_POINT ( 'NONE',  ( 0.000000000000000000, 0.000000000000000000, 5.000000000000000000 ) ) ;
#90 = LINE ( 'NONE', #250, #123 ) ;
#91 = AXIS2_PLACEMENT_3D ( 'NONE', #163, #139, #136 ) ;
#92 = APPROVAL ( #49, 'NEURÈENÝ' ) ;
#93 = DIRECTION ( 'NONE',  ( -0.000000000000000000, -0.000000000000000000, -1.000000000000000000 ) ) ;
#94 = VERTEX_POINT ( 'NONE', #39 ) ;
#95 = PERSON_AND_ORGANIZATION_ROLE ( 'classification_officer' ) ;
#96 = AXIS2_PLACEMENT_3D ( 'NONE', #13, #252, #45 ) ;
#97 = APPROVAL_DATE_TIME ( #306, #107 ) ;
#98 = PRODUCT_DEFINITION ( 'NEZNÁMÝ', '', #147, #155 ) ;
#99 = PERSON_AND_ORGANIZATION ( #24, #192 ) ;
#100 = APPROVAL ( #169, 'NEURÈENÝ' ) ;
#101 = APPROVAL_ROLE ( '' ) ;
#102 = EDGE_LOOP ( 'NONE', ( #264, #254 ) ) ;
#103 = ORIENTED_EDGE ( 'NONE', *, *, #268, .T. ) ;
#104 = EDGE_LOOP ( 'NONE', ( #215, #227, #194, #106 ) ) ;
#105 = CIRCLE ( 'NONE', #46, 3.450000000000000178 ) ;
#106 = ORIENTED_EDGE ( 'NONE', *, *, #141, .F. ) ;
#107 = APPROVAL ( #189, 'NEURÈENÝ' ) ;
#108 = DIRECTION ( 'NONE',  ( 1.000000000000000000, 0.000000000000000000, -0.000000000000000000 ) ) ;
#109 = CARTESIAN_POINT ( 'NONE',  ( 0.000000000000000000, 0.000000000000000000, 505.0000000000000000 ) ) ;
#110 =( GEOMETRIC_REPRESENTATION_CONTEXT ( 3 ) GLOBAL_UNCERTAINTY_ASSIGNED_CONTEXT ( ( #223 ) ) GLOBAL_UNIT_ASSIGNED_CONTEXT ( ( #303, #286, #283 ) ) REPRESENTATION_CONTEXT ( 'NONE', 'WORKASPACE' ) );
#111 = EDGE_CURVE ( 'NONE', #185, #220, #84, .T. ) ;
#112 = CARTESIAN_POINT ( 'NONE',  ( -6.000000000000000888, 0.000000000000000000, 0.000000000000000000 ) ) ;
#113 = FACE_OUTER_BOUND ( 'NONE', #146, .T. ) ;
#114 = CYLINDRICAL_SURFACE ( 'NONE', #18, 3.250000000000000444 ) ;
#115 = DIRECTION ( 'NONE',  ( 0.000000000000000000, 0.000000000000000000, 1.000000000000000000 ) ) ;
#116 = LOCAL_TIME ( 14, 38, 23.00000000000000000, #241 ) ;
#117 = ORIENTED_EDGE ( 'NONE', *, *, #73, .F. ) ;
#118 = ORIENTED_EDGE ( 'NONE', *, *, #170, .F. ) ;
#119 = CARTESIAN_POINT ( 'NONE',  ( 0.000000000000000000, 0.000000000000000000, 505.0000000000000000 ) ) ;
#120 = PERSON_AND_ORGANIZATION ( #24, #192 ) ;
#121 = CC_DESIGN_PERSON_AND_ORGANIZATION_ASSIGNMENT ( #74, #285, ( #147 ) ) ;
#122 = LOCAL_TIME ( 14, 38, 23.00000000000000000, #237 ) ;
#123 = VECTOR ( 'NONE', #273, 1000.000000000000000 ) ;
#124 = APPROVAL_DATE_TIME ( #238, #100 ) ;
#125 = CC_DESIGN_PERSON_AND_ORGANIZATION_ASSIGNMENT ( #145, #210, ( #98 ) ) ;
#126 = PERSON_AND_ORGANIZATION ( #24, #192 ) ;
#127 = APPROVAL_ROLE ( '' ) ;
#128 = DIRECTION ( 'NONE',  ( 1.000000000000000000, 0.000000000000000000, 0.000000000000000000 ) ) ;
#129 = ORIENTED_EDGE ( 'NONE', *, *, #268, .F. ) ;
#130 = APPROVAL_PERSON_ORGANIZATION ( #126, #100, #101 ) ;
#131 = PLANE ( 'NONE',  #53 ) ;
#132 = ORIENTED_EDGE ( 'NONE', *, *, #55, .T. ) ;
#133 = DIRECTION ( 'NONE',  ( -0.000000000000000000, -0.000000000000000000, -1.000000000000000000 ) ) ;
#134 = APPROVAL_PERSON_ORGANIZATION ( #99, #92, #127 ) ;
#135 = CARTESIAN_POINT ( 'NONE',  ( -3.250000000000000444, 0.000000000000000000, 505.0000000000000000 ) ) ;
#136 = DIRECTION ( 'NONE',  ( 1.000000000000000000, 0.000000000000000000, 0.000000000000000000 ) ) ;
#137 = DIRECTION ( 'NONE',  ( 1.000000000000000000, 0.000000000000000000, 0.000000000000000000 ) ) ;
#138 = EDGE_LOOP ( 'NONE', ( #129, #82 ) ) ;
#139 = DIRECTION ( 'NONE',  ( 0.000000000000000000, 0.000000000000000000, 1.000000000000000000 ) ) ;
#140 = CIRCLE ( 'NONE', #91, 3.250000000000000444 ) ;
#141 = EDGE_CURVE ( 'NONE', #167, #33, #202, .T. ) ;
#142 = APPROVAL_ROLE ( '' ) ;
#143 = CLOSED_SHELL ( 'NONE', ( #284, #208, #76, #34, #21, #282, #247, #51, #293 ) ) ;
#144 = EDGE_LOOP ( 'NONE', ( #240, #172 ) ) ;
#145 = PERSON_AND_ORGANIZATION ( #24, #192 ) ;
#146 = EDGE_LOOP ( 'NONE', ( #233, #132, #20, #217 ) ) ;
#147 = PRODUCT_DEFINITION_FORMATION_WITH_SPECIFIED_SOURCE ( 'LIBOVOLNÝ', '', #59, .NOT_KNOWN. ) ;
#148 = CIRCLE ( 'NONE', #25, 0.1999999999999996503 ) ;
#149 = DIRECTION ( 'NONE',  ( -0.000000000000000000, -0.000000000000000000, -1.000000000000000000 ) ) ;
#150 = DIRECTION ( 'NONE',  ( -1.000000000000000000, 0.000000000000000000, 0.000000000000000000 ) ) ;
#151 = DIRECTION ( 'NONE',  ( 0.000000000000000000, 0.000000000000000000, 1.000000000000000000 ) ) ;
#152 = AXIS2_PLACEMENT_3D ( 'NONE', #302, #43, #137 ) ;
#153 = ORIENTED_EDGE ( 'NONE', *, *, #111, .T. ) ;
#154 = CC_DESIGN_PERSON_AND_ORGANIZATION_ASSIGNMENT ( #239, #212, ( #59 ) ) ;
#155 = DESIGN_CONTEXT ( 'detailed design', #158, 'design' ) ;
#156 = CYLINDRICAL_SURFACE ( 'NONE', #87, 6.000000000000000888 ) ;
#157 = VECTOR ( 'NONE', #292, 1000.000000000000000 ) ;
#158 = APPLICATION_CONTEXT ( 'configuration controlled 3d designs of mechanical parts and assemblies' ) ;
#159 = DIRECTION ( 'NONE',  ( -1.000000000000000000, 0.000000000000000000, 0.000000000000000000 ) ) ;
#160 = AXIS2_PLACEMENT_3D ( 'NONE', #263, #50, #75 ) ;
#161 = CC_DESIGN_PERSON_AND_ORGANIZATION_ASSIGNMENT ( #120, #304, ( #147 ) ) ;
#162 = DIRECTION ( 'NONE',  ( 0.000000000000000000, 0.000000000000000000, 1.000000000000000000 ) ) ;
#163 = CARTESIAN_POINT ( 'NONE',  ( 0.000000000000000000, 0.000000000000000000, 5.199999999999982414 ) ) ;
#164 = VERTEX_POINT ( 'NONE', #243 ) ;
#165 = DIRECTION ( 'NONE',  ( 1.000000000000000000, 0.000000000000000000, 0.000000000000000000 ) ) ;
#166 = EDGE_CURVE ( 'NONE', #94, #267, #105, .T. ) ;
#167 = VERTEX_POINT ( 'NONE', #221 ) ;
#168 = DATE_TIME_ROLE ( 'classification_date' ) ;
#169 = APPROVAL_STATUS ( 'not_yet_approved' ) ;
#170 = EDGE_CURVE ( 'NONE', #29, #220, #61, .T. ) ;
#171 = PERSON_AND_ORGANIZATION ( #24, #192 ) ;
#172 = ORIENTED_EDGE ( 'NONE', *, *, #86, .T. ) ;
#173 = VERTEX_POINT ( 'NONE', #85 ) ;
#174 = EDGE_CURVE ( 'NONE', #167, #71, #234, .T. ) ;
#175 = ORIENTED_EDGE ( 'NONE', *, *, #141, .T. ) ;
#176 = FACE_OUTER_BOUND ( 'NONE', #198, .T. ) ;
#177 = FACE_OUTER_BOUND ( 'NONE', #104, .T. ) ;
#178 = DIRECTION ( 'NONE',  ( -1.000000000000000000, 1.224646799147350742E-16, 0.000000000000000000 ) ) ;
#179 = FACE_OUTER_BOUND ( 'NONE', #4, .T. ) ;
#180 = CIRCLE ( 'NONE', #298, 3.250000000000000444 ) ;
#181 = CARTESIAN_POINT ( 'NONE',  ( 0.000000000000000000, 0.000000000000000000, 5.199999999999982414 ) ) ;
#182 = AXIS2_PLACEMENT_3D ( 'NONE', #22, #203, #165 ) ;
#183 = DIRECTION ( 'NONE',  ( 0.000000000000000000, -1.000000000000000000, 0.000000000000000000 ) ) ;
#184 = DIRECTION ( 'NONE',  ( 1.000000000000000000, 0.000000000000000000, 0.000000000000000000 ) ) ;
#185 = VERTEX_POINT ( 'NONE', #135 ) ;
#186 = AXIS2_PLACEMENT_3D ( 'NONE', #37, #133, #150 ) ;
#187 = DIRECTION ( 'NONE',  ( 1.000000000000000000, 0.000000000000000000, 0.000000000000000000 ) ) ;
#188 = COORDINATED_UNIVERSAL_TIME_OFFSET ( 1, 0, .AHEAD. ) ;
#189 = APPROVAL_STATUS ( 'not_yet_approved' ) ;
#190 = SECURITY_CLASSIFICATION_LEVEL ( 'unclassified' ) ;
#191 = APPROVAL_DATE_TIME ( #2, #92 ) ;
#192 = ORGANIZATION ( 'NEURÈENÝ', 'NEURÈENÝ', '' ) ;
#193 = DATE_AND_TIME ( #307, #116 ) ;
#194 = ORIENTED_EDGE ( 'NONE', *, *, #204, .T. ) ;
#195 = EDGE_CURVE ( 'NONE', #71, #167, #201, .T. ) ;
#196 = CARTESIAN_POINT ( 'NONE',  ( 6.000000000000000888, 7.347880794884120722E-16, 5.000000000000000000 ) ) ;
#197 = AXIS2_PLACEMENT_3D ( 'NONE', #232, #231, #69 ) ;
#198 = EDGE_LOOP ( 'NONE', ( #17, #81 ) ) ;
#199 = CARTESIAN_POINT ( 'NONE',  ( 6.000000000000000888, 7.347880794884120722E-16, 5.000000000000000000 ) ) ;
#200 = DIRECTION ( 'NONE',  ( 0.000000000000000000, 0.000000000000000000, 1.000000000000000000 ) ) ;
#201 = CIRCLE ( 'NONE', #295, 6.000000000000000888 ) ;
#202 = LINE ( 'NONE', #296, #297 ) ;
#203 = DIRECTION ( 'NONE',  ( -0.000000000000000000, -0.000000000000000000, -1.000000000000000000 ) ) ;
#204 = EDGE_CURVE ( 'NONE', #173, #33, #32, .T. ) ;
#205 = DIRECTION ( 'NONE',  ( -1.000000000000000000, 0.000000000000000000, 0.000000000000000000 ) ) ;
#206 = CARTESIAN_POINT ( 'NONE',  ( 3.450000000000000178, 0.000000000000000000, 5.199999999999982414 ) ) ;
#207 = EDGE_LOOP ( 'NONE', ( #5, #44, #153, #256 ) ) ;
#208 = ADVANCED_FACE ( 'NONE', ( #179 ), #299, .T. ) ;
#209 = PLANE ( 'NONE',  #96 ) ;
#210 = PERSON_AND_ORGANIZATION_ROLE ( 'creator' ) ;
#211 = AXIS2_PLACEMENT_3D ( 'NONE', #300, #253, #159 ) ;
#212 = PERSON_AND_ORGANIZATION_ROLE ( 'design_owner' ) ;
#213 = EDGE_CURVE ( 'NONE', #267, #94, #9, .T. ) ;
#214 = CALENDAR_DATE ( 2022, 7, 7 ) ;
#215 = ORIENTED_EDGE ( 'NONE', *, *, #195, .F. ) ;
#216 = COORDINATED_UNIVERSAL_TIME_OFFSET ( 1, 0, .AHEAD. ) ;
#217 = ORIENTED_EDGE ( 'NONE', *, *, #249, .F. ) ;
#218 = CC_DESIGN_APPROVAL ( #92, ( #147 ) ) ;
#219 = EDGE_CURVE ( 'NONE', #164, #29, #90, .T. ) ;
#220 = VERTEX_POINT ( 'NONE', #258 ) ;
#221 = CARTESIAN_POINT ( 'NONE',  ( -6.000000000000000888, 0.000000000000000000, 5.000000000000000000 ) ) ;
#222 = LINE ( 'NONE', #196, #157 ) ;
#223 = UNCERTAINTY_MEASURE_WITH_UNIT (LENGTH_MEASURE( 1.000000000000000082E-05 ), #303, 'distance_accuracy_value', 'NONE');
#224 = DIRECTION ( 'NONE',  ( 0.000000000000000000, 0.000000000000000000, 1.000000000000000000 ) ) ;
#225 = CARTESIAN_POINT ( 'NONE',  ( -3.450000000000000178, 4.225031457058368824E-16, 5.199999999999982414 ) ) ;
#226 = CIRCLE ( 'NONE', #287, 0.2000000000000000944 ) ;
#227 = ORIENTED_EDGE ( 'NONE', *, *, #73, .T. ) ;
#228 = TOROIDAL_SURFACE ( 'NONE', #301, 3.450000000000000178, 0.2000000000000000111 ) ;
#229 = CC_DESIGN_DATE_AND_TIME_ASSIGNMENT ( #193, #31, ( #98 ) ) ;
#230 = FACE_OUTER_BOUND ( 'NONE', #138, .T. ) ;
#231 = DIRECTION ( 'NONE',  ( 0.000000000000000000, 0.000000000000000000, 1.000000000000000000 ) ) ;
#232 = CARTESIAN_POINT ( 'NONE',  ( 0.000000000000000000, 0.000000000000000000, 5.199999999999982414 ) ) ;
#233 = ORIENTED_EDGE ( 'NONE', *, *, #305, .F. ) ;
#234 = CIRCLE ( 'NONE', #280, 6.000000000000000888 ) ;
#235 = DIRECTION ( 'NONE',  ( 1.000000000000000000, 0.000000000000000000, 0.000000000000000000 ) ) ;
#236 = DIRECTION ( 'NONE',  ( 0.000000000000000000, 0.000000000000000000, 1.000000000000000000 ) ) ;
#237 = COORDINATED_UNIVERSAL_TIME_OFFSET ( 1, 0, .AHEAD. ) ;
#238 = DATE_AND_TIME ( #54, #83 ) ;
#239 = PERSON_AND_ORGANIZATION ( #24, #192 ) ;
#240 = ORIENTED_EDGE ( 'NONE', *, *, #272, .T. ) ;
#241 = COORDINATED_UNIVERSAL_TIME_OFFSET ( 1, 0, .AHEAD. ) ;
#242 = CC_DESIGN_SECURITY_CLASSIFICATION ( #257, ( #147 ) ) ;
#243 = CARTESIAN_POINT ( 'NONE',  ( 3.250000000000000444, 3.980102097228898231E-16, 505.0000000000000000 ) ) ;
#244 = VECTOR ( 'NONE', #62, 1000.000000000000000 ) ;
#245 = DIRECTION ( 'NONE',  ( 1.224646799147353207E-16, 1.000000000000000000, -0.000000000000000000 ) ) ;
#246 = FACE_OUTER_BOUND ( 'NONE', #52, .T. ) ;
#247 = ADVANCED_FACE ( 'NONE', ( #47 ), #114, .T. ) ;
#248 = ORIENTED_EDGE ( 'NONE', *, *, #174, .F. ) ;
#249 = EDGE_CURVE ( 'NONE', #29, #94, #148, .T. ) ;
#250 = CARTESIAN_POINT ( 'NONE',  ( 3.250000000000000444, 3.980102097228898231E-16, 505.0000000000000000 ) ) ;
#251 = LOCAL_TIME ( 14, 38, 23.00000000000000000, #48 ) ;
#252 = DIRECTION ( 'NONE',  ( 0.000000000000000000, 0.000000000000000000, 1.000000000000000000 ) ) ;
#253 = DIRECTION ( 'NONE',  ( -0.000000000000000000, -0.000000000000000000, -1.000000000000000000 ) ) ;
#254 = ORIENTED_EDGE ( 'NONE', *, *, #213, .T. ) ;
#255 = CARTESIAN_POINT ( 'NONE',  ( 0.000000000000000000, 0.000000000000000000, 505.0000000000000000 ) ) ;
#256 = ORIENTED_EDGE ( 'NONE', *, *, #305, .T. ) ;
#257 = SECURITY_CLASSIFICATION ( '', '', #190 ) ;
#258 = CARTESIAN_POINT ( 'NONE',  ( -3.250000000000000444, 0.000000000000000000, 5.199999999999982414 ) ) ;
#259 = PERSON_AND_ORGANIZATION ( #24, #192 ) ;
#260 = MECHANICAL_CONTEXT ( 'NONE', #88, 'mechanical' ) ;
#261 = TOROIDAL_SURFACE ( 'NONE', #70, 3.450000000000000178, 0.2000000000000000111 ) ;
#262 = AXIS2_PLACEMENT_3D ( 'NONE', #275, #236, #187 ) ;
#263 = CARTESIAN_POINT ( 'NONE',  ( 0.000000000000000000, 0.000000000000000000, 0.000000000000000000 ) ) ;
#264 = ORIENTED_EDGE ( 'NONE', *, *, #166, .T. ) ;
#265 = APPLICATION_PROTOCOL_DEFINITION ( 'international standard', 'config_control_design', 1994, #88 ) ;
#266 = CYLINDRICAL_SURFACE ( 'NONE', #186, 6.000000000000000888 ) ;
#267 = VERTEX_POINT ( 'NONE', #42 ) ;
#268 = EDGE_CURVE ( 'NONE', #33, #173, #289, .T. ) ;
#269 = CARTESIAN_POINT ( 'NONE',  ( 0.000000000000000000, 0.000000000000000000, 5.000000000000000000 ) ) ;
#270 = PLANE ( 'NONE',  #77 ) ;
#271 = CARTESIAN_POINT ( 'NONE',  ( -3.250000000000000444, 0.000000000000000000, 505.0000000000000000 ) ) ;
#272 = EDGE_CURVE ( 'NONE', #185, #164, #277, .T. ) ;
#273 = DIRECTION ( 'NONE',  ( -0.000000000000000000, -0.000000000000000000, -1.000000000000000000 ) ) ;
#274 = DIRECTION ( 'NONE',  ( 1.000000000000000000, 0.000000000000000000, 0.000000000000000000 ) ) ;
#275 = CARTESIAN_POINT ( 'NONE',  ( 0.000000000000000000, 0.000000000000000000, 0.000000000000000000 ) ) ;
#276 = DIRECTION ( 'NONE',  ( 1.000000000000000000, 0.000000000000000000, 0.000000000000000000 ) ) ;
#277 = CIRCLE ( 'NONE', #30, 3.250000000000000444 ) ;
#278 = ORIENTED_EDGE ( 'NONE', *, *, #213, .F. ) ;
#279 = CC_DESIGN_APPROVAL ( #107, ( #257 ) ) ;
#280 = AXIS2_PLACEMENT_3D ( 'NONE', #63, #66, #235 ) ;
#281 = CALENDAR_DATE ( 2022, 7, 7 ) ;
#282 = ADVANCED_FACE ( 'NONE', ( #230 ), #209, .F. ) ;
#283 =( NAMED_UNIT ( * ) SI_UNIT ( $, .STERADIAN. ) SOLID_ANGLE_UNIT ( ) );
#284 = ADVANCED_FACE ( 'NONE', ( #113 ), #261, .F. ) ;
#285 = PERSON_AND_ORGANIZATION_ROLE ( 'creator' ) ;
#286 =( NAMED_UNIT ( * ) PLANE_ANGLE_UNIT ( ) SI_UNIT ( $, .RADIAN. ) );
#287 = AXIS2_PLACEMENT_3D ( 'NONE', #225, #245, #178 ) ;
#288 = DIRECTION ( 'NONE',  ( -0.000000000000000000, -0.000000000000000000, -1.000000000000000000 ) ) ;
#289 = CIRCLE ( 'NONE', #152, 6.000000000000000888 ) ;
#290 = PRODUCT_DEFINITION_SHAPE ( 'NONE', 'NONE',  #98 ) ;
#291 = ORIENTED_EDGE ( 'NONE', *, *, #86, .F. ) ;
#292 = DIRECTION ( 'NONE',  ( -0.000000000000000000, -0.000000000000000000, -1.000000000000000000 ) ) ;
#293 = ADVANCED_FACE ( 'NONE', ( #65 ), #228, .F. ) ;
#294 = DIRECTION ( 'NONE',  ( 1.000000000000000000, 0.000000000000000000, 0.000000000000000000 ) ) ;
#295 = AXIS2_PLACEMENT_3D ( 'NONE', #89, #162, #14 ) ;
#296 = CARTESIAN_POINT ( 'NONE',  ( -6.000000000000000888, 0.000000000000000000, 5.000000000000000000 ) ) ;
#297 = VECTOR ( 'NONE', #149, 1000.000000000000000 ) ;
#298 = AXIS2_PLACEMENT_3D ( 'NONE', #109, #200, #294 ) ;
#299 = CYLINDRICAL_SURFACE ( 'NONE', #211, 3.250000000000000444 ) ;
#300 = CARTESIAN_POINT ( 'NONE',  ( 0.000000000000000000, 0.000000000000000000, 505.0000000000000000 ) ) ;
#301 = AXIS2_PLACEMENT_3D ( 'NONE', #15, #115, #276 ) ;
#302 = CARTESIAN_POINT ( 'NONE',  ( 0.000000000000000000, 0.000000000000000000, 0.000000000000000000 ) ) ;
#303 =( LENGTH_UNIT ( ) NAMED_UNIT ( * ) SI_UNIT ( .MILLI., .METRE. ) );
#304 = PERSON_AND_ORGANIZATION_ROLE ( 'design_supplier' ) ;
#305 = EDGE_CURVE ( 'NONE', #220, #29, #140, .T. ) ;
#306 = DATE_AND_TIME ( #23, #122 ) ;
#307 = CALENDAR_DATE ( 2022, 7, 7 ) ;
ENDSEC;
END-ISO-10303-21;
