ISO-10303-21;
HEADER;
FILE_DESCRIPTION (( 'STEP AP203' ),
    '1' );
FILE_NAME ('54ac.STEP',
    '2022-07-07T12:30:38',
    ( '' ),
    ( '' ),
    'SwSTEP 2.0',
    'SolidWorks 2019',
    '' );
FILE_SCHEMA (( 'CONFIG_CONTROL_DESIGN' ));
ENDSEC;

DATA;
#1 = CARTESIAN_POINT ( 'NONE',  ( -4.250000000000000000, 0.000000000000000000, 505.0000000000000000 ) ) ;
#2 = PRODUCT_DEFINITION ( 'NEZNÁMÝ', '', #152, #218 ) ;
#3 = DIRECTION ( 'NONE',  ( -0.000000000000000000, -0.000000000000000000, -1.000000000000000000 ) ) ;
#4 = DIRECTION ( 'NONE',  ( -0.000000000000000000, -0.000000000000000000, -1.000000000000000000 ) ) ;
#5 = AXIS2_PLACEMENT_3D ( 'NONE', #211, #90, #118 ) ;
#6 = DIRECTION ( 'NONE',  ( 0.000000000000000000, 0.000000000000000000, 1.000000000000000000 ) ) ;
#7 = CARTESIAN_POINT ( 'NONE',  ( 0.000000000000000000, 0.000000000000000000, 505.0000000000000000 ) ) ;
#8 = CARTESIAN_POINT ( 'NONE',  ( 0.000000000000000000, 0.000000000000000000, 5.199999999999982414 ) ) ;
#9 = DIRECTION ( 'NONE',  ( 0.000000000000000000, 0.000000000000000000, 1.000000000000000000 ) ) ;
#10 = CARTESIAN_POINT ( 'NONE',  ( -7.000000000000000000, 0.000000000000000000, 5.000000000000000000 ) ) ;
#11 = DIRECTION ( 'NONE',  ( 0.000000000000000000, 0.000000000000000000, 1.000000000000000000 ) ) ;
#12 = CC_DESIGN_PERSON_AND_ORGANIZATION_ASSIGNMENT ( #184, #113, ( #152 ) ) ;
#13 = AXIS2_PLACEMENT_3D ( 'NONE', #293, #171, #272 ) ;
#14 = EDGE_CURVE ( 'NONE', #43, #250, #266, .T. ) ;
#15 = PERSON_AND_ORGANIZATION_ROLE ( 'design_owner' ) ;
#16 = CALENDAR_DATE ( 2022, 7, 7 ) ;
#17 = APPROVAL_STATUS ( 'not_yet_approved' ) ;
#18 = ADVANCED_FACE ( 'NONE', ( #208 ), #232, .T. ) ;
#19 = ORIENTED_EDGE ( 'NONE', *, *, #139, .F. ) ;
#20 = DIRECTION ( 'NONE',  ( 0.000000000000000000, 0.000000000000000000, 1.000000000000000000 ) ) ;
#21 = ORIENTED_EDGE ( 'NONE', *, *, #267, .T. ) ;
#22 = PERSON ( 'NEURÈENÝ', 'NEURÈENÝ', 'NEURÈENÝ', ('NEURÈENÝ'), ('NEURÈENÝ'), ('NEURÈENÝ') ) ;
#23 = CARTESIAN_POINT ( 'NONE',  ( 0.000000000000000000, 0.000000000000000000, 505.0000000000000000 ) ) ;
#24 = CC_DESIGN_APPROVAL ( #307, ( #152 ) ) ;
#25 = ORIENTED_EDGE ( 'NONE', *, *, #306, .F. ) ;
#26 = VERTEX_POINT ( 'NONE', #261 ) ;
#27 = DIRECTION ( 'NONE',  ( 0.000000000000000000, 0.000000000000000000, -1.000000000000000000 ) ) ;
#28 = TOROIDAL_SURFACE ( 'NONE', #175, 4.450000000000000178, 0.2000000000000000111 ) ;
#29 = VECTOR ( 'NONE', #248, 1000.000000000000000 ) ;
#30 = CARTESIAN_POINT ( 'NONE',  ( 0.000000000000000000, 0.000000000000000000, 5.000000000000000000 ) ) ;
#31 = CARTESIAN_POINT ( 'NONE',  ( 0.000000000000000000, 0.000000000000000000, 5.199999999999982414 ) ) ;
#32 = DIRECTION ( 'NONE',  ( 0.000000000000000000, 0.000000000000000000, 1.000000000000000000 ) ) ;
#33 = DIRECTION ( 'NONE',  ( -0.000000000000000000, -0.000000000000000000, -1.000000000000000000 ) ) ;
#34 =( LENGTH_UNIT ( ) NAMED_UNIT ( * ) SI_UNIT ( .MILLI., .METRE. ) );
#35 = ADVANCED_FACE ( 'NONE', ( #185 ), #240, .T. ) ;
#36 = DATE_AND_TIME ( #226, #84 ) ;
#37 = ORIENTED_EDGE ( 'NONE', *, *, #207, .T. ) ;
#38 = APPROVAL_ROLE ( '' ) ;
#39 = CALENDAR_DATE ( 2022, 7, 7 ) ;
#40 = ORIENTED_EDGE ( 'NONE', *, *, #294, .T. ) ;
#41 = AXIS2_PLACEMENT_3D ( 'NONE', #270, #55, #103 ) ;
#42 = ORIENTED_EDGE ( 'NONE', *, *, #14, .T. ) ;
#43 = VERTEX_POINT ( 'NONE', #289 ) ;
#44 = DIRECTION ( 'NONE',  ( -0.000000000000000000, -0.000000000000000000, -1.000000000000000000 ) ) ;
#45 = AXIS2_PLACEMENT_3D ( 'NONE', #265, #165, #141 ) ;
#46 = DIRECTION ( 'NONE',  ( -1.000000000000000000, 0.000000000000000000, 0.000000000000000000 ) ) ;
#47 = EDGE_CURVE ( 'NONE', #43, #92, #140, .T. ) ;
#48 = CARTESIAN_POINT ( 'NONE',  ( -4.250000000000000000, 0.000000000000000000, 5.199999999999982414 ) ) ;
#49 = CC_DESIGN_DATE_AND_TIME_ASSIGNMENT ( #36, #131, ( #2 ) ) ;
#50 = ORIENTED_EDGE ( 'NONE', *, *, #257, .F. ) ;
#51 = CLOSED_SHELL ( 'NONE', ( #222, #71, #35, #183, #214, #107, #18, #298, #66 ) ) ;
#52 = FACE_OUTER_BOUND ( 'NONE', #133, .T. ) ;
#53 = CARTESIAN_POINT ( 'NONE',  ( -4.450000000000000178, 5.449678256205721784E-16, 4.999999999999991118 ) ) ;
#54 = APPLICATION_CONTEXT ( 'configuration controlled 3d designs of mechanical parts and assemblies' ) ;
#55 = DIRECTION ( 'NONE',  ( 0.000000000000000000, 0.000000000000000000, 1.000000000000000000 ) ) ;
#56 = APPROVAL_PERSON_ORGANIZATION ( #158, #89, #38 ) ;
#57 = DIRECTION ( 'NONE',  ( 0.000000000000000000, 0.000000000000000000, 1.000000000000000000 ) ) ;
#58 = APPROVAL_STATUS ( 'not_yet_approved' ) ;
#59 = AXIS2_PLACEMENT_3D ( 'NONE', #187, #166, #236 ) ;
#60 = PERSON_AND_ORGANIZATION ( #22, #235 ) ;
#61 = AXIS2_PLACEMENT_3D ( 'NONE', #128, #75, #242 ) ;
#62 = EDGE_LOOP ( 'NONE', ( #260, #114 ) ) ;
#63 = CALENDAR_DATE ( 2022, 7, 7 ) ;
#64 = ORIENTED_EDGE ( 'NONE', *, *, #139, .T. ) ;
#65 = LOCAL_TIME ( 14, 30, 38.00000000000000000, #180 ) ;
#66 = ADVANCED_FACE ( 'NONE', ( #288 ), #28, .F. ) ;
#67 = ORIENTED_EDGE ( 'NONE', *, *, #125, .F. ) ;
#68 = EDGE_CURVE ( 'NONE', #87, #204, #130, .T. ) ;
#69 = CARTESIAN_POINT ( 'NONE',  ( 0.000000000000000000, 0.000000000000000000, 5.000000000000000000 ) ) ;
#70 = ORIENTED_EDGE ( 'NONE', *, *, #207, .F. ) ;
#71 = ADVANCED_FACE ( 'NONE', ( #94 ), #188, .T. ) ;
#72 = CIRCLE ( 'NONE', #78, 4.250000000000000000 ) ;
#73 = DIRECTION ( 'NONE',  ( -0.000000000000000000, -0.000000000000000000, -1.000000000000000000 ) ) ;
#74 = DIRECTION ( 'NONE',  ( 1.000000000000000000, 0.000000000000000000, 0.000000000000000000 ) ) ;
#75 = DIRECTION ( 'NONE',  ( -0.000000000000000000, -0.000000000000000000, -1.000000000000000000 ) ) ;
#76 = UNCERTAINTY_MEASURE_WITH_UNIT (LENGTH_MEASURE( 1.000000000000000082E-05 ), #34, 'distance_accuracy_value', 'NONE');
#77 = CARTESIAN_POINT ( 'NONE',  ( 7.000000000000000000, 8.572527594031473190E-16, 5.000000000000000000 ) ) ;
#78 = AXIS2_PLACEMENT_3D ( 'NONE', #8, #32, #74 ) ;
#79 = FACE_OUTER_BOUND ( 'NONE', #161, .T. ) ;
#80 = CC_DESIGN_APPROVAL ( #89, ( #2 ) ) ;
#81 = VERTEX_POINT ( 'NONE', #48 ) ;
#82 = PERSON_AND_ORGANIZATION ( #22, #235 ) ;
#83 = CIRCLE ( 'NONE', #263, 0.1999999999999996503 ) ;
#84 = LOCAL_TIME ( 14, 30, 38.00000000000000000, #249 ) ;
#85 = ORIENTED_EDGE ( 'NONE', *, *, #267, .F. ) ;
#86 = COORDINATED_UNIVERSAL_TIME_OFFSET ( 1, 0, .AHEAD. ) ;
#87 = VERTEX_POINT ( 'NONE', #121 ) ;
#88 = CC_DESIGN_SECURITY_CLASSIFICATION ( #297, ( #152 ) ) ;
#89 = APPROVAL ( #58, 'NEURÈENÝ' ) ;
#90 = DIRECTION ( 'NONE',  ( 0.000000000000000000, 0.000000000000000000, 1.000000000000000000 ) ) ;
#91 = DIRECTION ( 'NONE',  ( 1.000000000000000000, 0.000000000000000000, 0.000000000000000000 ) ) ;
#92 = VERTEX_POINT ( 'NONE', #1 ) ;
#93 = LOCAL_TIME ( 14, 30, 38.00000000000000000, #86 ) ;
#94 = FACE_OUTER_BOUND ( 'NONE', #199, .T. ) ;
#95 = CARTESIAN_POINT ( 'NONE',  ( 0.000000000000000000, 0.000000000000000000, 5.199999999999982414 ) ) ;
#96 = CARTESIAN_POINT ( 'NONE',  ( 7.000000000000000000, 8.572527594031473190E-16, 5.000000000000000000 ) ) ;
#97 = CIRCLE ( 'NONE', #303, 4.450000000000000178 ) ;
#98 = CIRCLE ( 'NONE', #277, 4.250000000000000000 ) ;
#99 = AXIS2_PLACEMENT_3D ( 'NONE', #115, #20, #137 ) ;
#100 = CC_DESIGN_PERSON_AND_ORGANIZATION_ASSIGNMENT ( #60, #178, ( #2 ) ) ;
#101 = CARTESIAN_POINT ( 'NONE',  ( -4.250000000000000000, 0.000000000000000000, 505.0000000000000000 ) ) ;
#102 = PRODUCT_DEFINITION_SHAPE ( 'NONE', 'NONE',  #2 ) ;
#103 = DIRECTION ( 'NONE',  ( 1.000000000000000000, 0.000000000000000000, -0.000000000000000000 ) ) ;
#104 = APPROVAL ( #17, 'NEURÈENÝ' ) ;
#105 = LINE ( 'NONE', #10, #29 ) ;
#106 = CIRCLE ( 'NONE', #283, 7.000000000000000000 ) ;
#107 = ADVANCED_FACE ( 'NONE', ( #189 ), #239, .F. ) ;
#108 = DATE_AND_TIME ( #39, #227 ) ;
#109 = ORIENTED_EDGE ( 'NONE', *, *, #275, .F. ) ;
#110 = APPROVAL_ROLE ( '' ) ;
#111 = VECTOR ( 'NONE', #33, 1000.000000000000000 ) ;
#112 = CIRCLE ( 'NONE', #163, 7.000000000000000000 ) ;
#113 = PERSON_AND_ORGANIZATION_ROLE ( 'design_supplier' ) ;
#114 = ORIENTED_EDGE ( 'NONE', *, *, #197, .T. ) ;
#115 = CARTESIAN_POINT ( 'NONE',  ( 0.000000000000000000, 0.000000000000000000, 0.000000000000000000 ) ) ;
#116 = ORIENTED_EDGE ( 'NONE', *, *, #120, .F. ) ;
#117 = DIRECTION ( 'NONE',  ( -1.000000000000000000, 0.000000000000000000, 0.000000000000000000 ) ) ;
#118 = DIRECTION ( 'NONE',  ( 1.000000000000000000, 0.000000000000000000, -0.000000000000000000 ) ) ;
#119 = APPLICATION_CONTEXT ( 'configuration controlled 3d designs of mechanical parts and assemblies' ) ;
#120 = EDGE_CURVE ( 'NONE', #26, #302, #233, .T. ) ;
#121 = CARTESIAN_POINT ( 'NONE',  ( -7.000000000000000000, 0.000000000000000000, 0.000000000000000000 ) ) ;
#122 = ORIENTED_EDGE ( 'NONE', *, *, #68, .T. ) ;
#123 = AXIS2_PLACEMENT_3D ( 'NONE', #206, #170, #143 ) ;
#124 = DIRECTION ( 'NONE',  ( 1.000000000000000000, 0.000000000000000000, 0.000000000000000000 ) ) ;
#125 = EDGE_CURVE ( 'NONE', #302, #26, #97, .T. ) ;
#126 = DIRECTION ( 'NONE',  ( 1.000000000000000000, 0.000000000000000000, 0.000000000000000000 ) ) ;
#127 = PLANE ( 'NONE',  #234 ) ;
#128 = CARTESIAN_POINT ( 'NONE',  ( 0.000000000000000000, 0.000000000000000000, 5.000000000000000000 ) ) ;
#129 = FACE_BOUND ( 'NONE', #169, .T. ) ;
#130 = CIRCLE ( 'NONE', #45, 7.000000000000000000 ) ;
#131 = DATE_TIME_ROLE ( 'creation_date' ) ;
#132 = SECURITY_CLASSIFICATION_LEVEL ( 'unclassified' ) ;
#133 = EDGE_LOOP ( 'NONE', ( #252, #285 ) ) ;
#134 = PERSON_AND_ORGANIZATION_ROLE ( 'creator' ) ;
#135 = ORIENTED_EDGE ( 'NONE', *, *, #125, .T. ) ;
#136 = APPROVAL_DATE_TIME ( #253, #89 ) ;
#137 = DIRECTION ( 'NONE',  ( 1.000000000000000000, 0.000000000000000000, 0.000000000000000000 ) ) ;
#138 = ORIENTED_EDGE ( 'NONE', *, *, #259, .F. ) ;
#139 = EDGE_CURVE ( 'NONE', #250, #26, #167, .T. ) ;
#140 = CIRCLE ( 'NONE', #59, 4.250000000000000000 ) ;
#141 = DIRECTION ( 'NONE',  ( 1.000000000000000000, 0.000000000000000000, 0.000000000000000000 ) ) ;
#142 = CARTESIAN_POINT ( 'NONE',  ( 4.450000000000000178, 0.000000000000000000, 5.199999999999982414 ) ) ;
#143 = DIRECTION ( 'NONE',  ( 1.000000000000000000, 0.000000000000000000, 0.000000000000000000 ) ) ;
#144 = EDGE_CURVE ( 'NONE', #157, #204, #238, .T. ) ;
#145 = EDGE_LOOP ( 'NONE', ( #85, #138, #64, #67 ) ) ;
#146 = CIRCLE ( 'NONE', #13, 7.000000000000000000 ) ;
#147 = ADVANCED_BREP_SHAPE_REPRESENTATION ( '54ac', ( #279, #99 ), #195 ) ;
#148 = CARTESIAN_POINT ( 'NONE',  ( 4.250000000000000000, 5.204748896376250699E-16, 5.199999999999982414 ) ) ;
#149 = CC_DESIGN_PERSON_AND_ORGANIZATION_ASSIGNMENT ( #182, #15, ( #191 ) ) ;
#150 = DIRECTION ( 'NONE',  ( -0.000000000000000000, -0.000000000000000000, -1.000000000000000000 ) ) ;
#151 = DIRECTION ( 'NONE',  ( 1.000000000000000000, 0.000000000000000000, 0.000000000000000000 ) ) ;
#152 = PRODUCT_DEFINITION_FORMATION_WITH_SPECIFIED_SOURCE ( 'LIBOVOLNÝ', '', #191, .NOT_KNOWN. ) ;
#153 = CARTESIAN_POINT ( 'NONE',  ( 7.000000000000000000, 8.572527594031473190E-16, 0.000000000000000000 ) ) ;
#154 = COORDINATED_UNIVERSAL_TIME_OFFSET ( 1, 0, .AHEAD. ) ;
#155 = AXIS2_PLACEMENT_3D ( 'NONE', #7, #73, #46 ) ;
#156 = APPLICATION_PROTOCOL_DEFINITION ( 'international standard', 'config_control_design', 1994, #54 ) ;
#157 = VERTEX_POINT ( 'NONE', #77 ) ;
#158 = PERSON_AND_ORGANIZATION ( #22, #235 ) ;
#159 = ORIENTED_EDGE ( 'NONE', *, *, #259, .T. ) ;
#160 = APPLICATION_PROTOCOL_DEFINITION ( 'international standard', 'config_control_design', 1994, #119 ) ;
#161 = EDGE_LOOP ( 'NONE', ( #254, #50, #231, #122 ) ) ;
#162 = AXIS2_PLACEMENT_3D ( 'NONE', #30, #205, #209 ) ;
#163 = AXIS2_PLACEMENT_3D ( 'NONE', #274, #57, #269 ) ;
#164 = EDGE_LOOP ( 'NONE', ( #305, #186, #40, #25 ) ) ;
#165 = DIRECTION ( 'NONE',  ( 0.000000000000000000, 0.000000000000000000, 1.000000000000000000 ) ) ;
#166 = DIRECTION ( 'NONE',  ( 0.000000000000000000, 0.000000000000000000, 1.000000000000000000 ) ) ;
#167 = CIRCLE ( 'NONE', #291, 0.1999999999999996503 ) ;
#168 = EDGE_LOOP ( 'NONE', ( #284, #181 ) ) ;
#169 = EDGE_LOOP ( 'NONE', ( #201, #135 ) ) ;
#170 = DIRECTION ( 'NONE',  ( -0.000000000000000000, -0.000000000000000000, -1.000000000000000000 ) ) ;
#171 = DIRECTION ( 'NONE',  ( 0.000000000000000000, 0.000000000000000000, 1.000000000000000000 ) ) ;
#172 = DIRECTION ( 'NONE',  ( 1.000000000000000000, 0.000000000000000000, 0.000000000000000000 ) ) ;
#173 = PLANE ( 'NONE',  #41 ) ;
#174 = DIRECTION ( 'NONE',  ( 1.000000000000000000, 0.000000000000000000, 0.000000000000000000 ) ) ;
#175 = AXIS2_PLACEMENT_3D ( 'NONE', #95, #6, #124 ) ;
#176 = APPROVAL_PERSON_ORGANIZATION ( #301, #104, #110 ) ;
#177 = CARTESIAN_POINT ( 'NONE',  ( 0.000000000000000000, 0.000000000000000000, 5.000000000000000000 ) ) ;
#178 = PERSON_AND_ORGANIZATION_ROLE ( 'creator' ) ;
#179 = CIRCLE ( 'NONE', #216, 4.250000000000000000 ) ;
#180 = COORDINATED_UNIVERSAL_TIME_OFFSET ( 1, 0, .AHEAD. ) ;
#181 = ORIENTED_EDGE ( 'NONE', *, *, #294, .F. ) ;
#182 = PERSON_AND_ORGANIZATION ( #22, #235 ) ;
#183 = ADVANCED_FACE ( 'NONE', ( #79 ), #213, .T. ) ;
#184 = PERSON_AND_ORGANIZATION ( #22, #235 ) ;
#185 = FACE_OUTER_BOUND ( 'NONE', #164, .T. ) ;
#186 = ORIENTED_EDGE ( 'NONE', *, *, #144, .T. ) ;
#187 = CARTESIAN_POINT ( 'NONE',  ( 0.000000000000000000, 0.000000000000000000, 505.0000000000000000 ) ) ;
#188 = CYLINDRICAL_SURFACE ( 'NONE', #155, 4.250000000000000000 ) ;
#189 = FACE_OUTER_BOUND ( 'NONE', #168, .T. ) ;
#190 = DIRECTION ( 'NONE',  ( 0.000000000000000000, 0.000000000000000000, 1.000000000000000000 ) ) ;
#191 = PRODUCT ( '54ac', '54ac', '', ( #299 ) ) ;
#192 = DIRECTION ( 'NONE',  ( 1.000000000000000000, 0.000000000000000000, -0.000000000000000000 ) ) ;
#193 = CARTESIAN_POINT ( 'NONE',  ( -7.000000000000000000, 0.000000000000000000, 5.000000000000000000 ) ) ;
#194 = DIRECTION ( 'NONE',  ( -1.000000000000000000, 1.224646799147353454E-16, 0.000000000000000000 ) ) ;
#195 =( GEOMETRIC_REPRESENTATION_CONTEXT ( 3 ) GLOBAL_UNCERTAINTY_ASSIGNED_CONTEXT ( ( #76 ) ) GLOBAL_UNIT_ASSIGNED_CONTEXT ( ( #34, #221, #196 ) ) REPRESENTATION_CONTEXT ( 'NONE', 'WORKASPACE' ) );
#196 =( NAMED_UNIT ( * ) SI_UNIT ( $, .STERADIAN. ) SOLID_ANGLE_UNIT ( ) );
#197 = EDGE_CURVE ( 'NONE', #157, #202, #106, .T. ) ;
#198 = DATE_AND_TIME ( #16, #65 ) ;
#199 = EDGE_LOOP ( 'NONE', ( #229, #42, #159, #109 ) ) ;
#200 = DATE_TIME_ROLE ( 'classification_date' ) ;
#201 = ORIENTED_EDGE ( 'NONE', *, *, #120, .T. ) ;
#202 = VERTEX_POINT ( 'NONE', #193 ) ;
#203 = PERSON_AND_ORGANIZATION ( #22, #235 ) ;
#204 = VERTEX_POINT ( 'NONE', #153 ) ;
#205 = DIRECTION ( 'NONE',  ( -0.000000000000000000, -0.000000000000000000, -1.000000000000000000 ) ) ;
#206 = CARTESIAN_POINT ( 'NONE',  ( 0.000000000000000000, 0.000000000000000000, 5.000000000000000000 ) ) ;
#207 = EDGE_CURVE ( 'NONE', #81, #250, #72, .T. ) ;
#208 = FACE_OUTER_BOUND ( 'NONE', #282, .T. ) ;
#209 = DIRECTION ( 'NONE',  ( -1.000000000000000000, 0.000000000000000000, 0.000000000000000000 ) ) ;
#210 = VECTOR ( 'NONE', #150, 1000.000000000000000 ) ;
#211 = CARTESIAN_POINT ( 'NONE',  ( 0.000000000000000000, 0.000000000000000000, 0.000000000000000000 ) ) ;
#212 = CC_DESIGN_PERSON_AND_ORGANIZATION_ASSIGNMENT ( #203, #225, ( #297 ) ) ;
#213 = CYLINDRICAL_SURFACE ( 'NONE', #61, 7.000000000000000000 ) ;
#214 = ADVANCED_FACE ( 'NONE', ( #129, #247 ), #127, .T. ) ;
#215 = FACE_OUTER_BOUND ( 'NONE', #280, .T. ) ;
#216 = AXIS2_PLACEMENT_3D ( 'NONE', #241, #9, #151 ) ;
#217 = LOCAL_TIME ( 14, 30, 38.00000000000000000, #154 ) ;
#218 = DESIGN_CONTEXT ( 'detailed design', #54, 'design' ) ;
#219 = DIRECTION ( 'NONE',  ( 0.000000000000000000, 0.000000000000000000, 1.000000000000000000 ) ) ;
#220 = DIRECTION ( 'NONE',  ( 1.224646799147353207E-16, 1.000000000000000000, -0.000000000000000000 ) ) ;
#221 =( NAMED_UNIT ( * ) PLANE_ANGLE_UNIT ( ) SI_UNIT ( $, .RADIAN. ) );
#222 = ADVANCED_FACE ( 'NONE', ( #215 ), #244, .F. ) ;
#223 = APPROVAL_STATUS ( 'not_yet_approved' ) ;
#224 = ORIENTED_EDGE ( 'NONE', *, *, #275, .T. ) ;
#225 = PERSON_AND_ORGANIZATION_ROLE ( 'classification_officer' ) ;
#226 = CALENDAR_DATE ( 2022, 7, 7 ) ;
#227 = LOCAL_TIME ( 14, 30, 38.00000000000000000, #304 ) ;
#228 = DATE_AND_TIME ( #63, #93 ) ;
#229 = ORIENTED_EDGE ( 'NONE', *, *, #47, .F. ) ;
#230 = PERSON_AND_ORGANIZATION ( #22, #235 ) ;
#231 = ORIENTED_EDGE ( 'NONE', *, *, #306, .T. ) ;
#232 = CYLINDRICAL_SURFACE ( 'NONE', #256, 4.250000000000000000 ) ;
#233 = CIRCLE ( 'NONE', #123, 4.450000000000000178 ) ;
#234 = AXIS2_PLACEMENT_3D ( 'NONE', #177, #190, #192 ) ;
#235 = ORGANIZATION ( 'NEURÈENÝ', 'NEURÈENÝ', '' ) ;
#236 = DIRECTION ( 'NONE',  ( 1.000000000000000000, 0.000000000000000000, 0.000000000000000000 ) ) ;
#237 = CC_DESIGN_PERSON_AND_ORGANIZATION_ASSIGNMENT ( #230, #134, ( #152 ) ) ;
#238 = LINE ( 'NONE', #96, #210 ) ;
#239 = PLANE ( 'NONE',  #5 ) ;
#240 = CYLINDRICAL_SURFACE ( 'NONE', #162, 7.000000000000000000 ) ;
#241 = CARTESIAN_POINT ( 'NONE',  ( 0.000000000000000000, 0.000000000000000000, 5.199999999999982414 ) ) ;
#242 = DIRECTION ( 'NONE',  ( -1.000000000000000000, 0.000000000000000000, 0.000000000000000000 ) ) ;
#243 = CARTESIAN_POINT ( 'NONE',  ( 0.000000000000000000, 0.000000000000000000, 5.000000000000000000 ) ) ;
#244 = TOROIDAL_SURFACE ( 'NONE', #287, 4.450000000000000178, 0.2000000000000000111 ) ;
#245 = EDGE_CURVE ( 'NONE', #92, #43, #98, .T. ) ;
#246 = PRODUCT_RELATED_PRODUCT_CATEGORY ( 'detail', '', ( #191 ) ) ;
#247 = FACE_OUTER_BOUND ( 'NONE', #62, .T. ) ;
#248 = DIRECTION ( 'NONE',  ( -0.000000000000000000, -0.000000000000000000, -1.000000000000000000 ) ) ;
#249 = COORDINATED_UNIVERSAL_TIME_OFFSET ( 1, 0, .AHEAD. ) ;
#250 = VERTEX_POINT ( 'NONE', #148 ) ;
#251 = APPROVAL_DATE_TIME ( #198, #307 ) ;
#252 = ORIENTED_EDGE ( 'NONE', *, *, #245, .T. ) ;
#253 = DATE_AND_TIME ( #276, #217 ) ;
#254 = ORIENTED_EDGE ( 'NONE', *, *, #144, .F. ) ;
#255 = SHAPE_DEFINITION_REPRESENTATION ( #102, #147 ) ;
#256 = AXIS2_PLACEMENT_3D ( 'NONE', #23, #4, #117 ) ;
#257 = EDGE_CURVE ( 'NONE', #202, #157, #146, .T. ) ;
#258 = APPROVAL_DATE_TIME ( #228, #104 ) ;
#259 = EDGE_CURVE ( 'NONE', #250, #81, #179, .T. ) ;
#260 = ORIENTED_EDGE ( 'NONE', *, *, #257, .T. ) ;
#261 = CARTESIAN_POINT ( 'NONE',  ( 4.450000000000000178, 0.000000000000000000, 4.999999999999991118 ) ) ;
#262 = VECTOR ( 'NONE', #44, 1000.000000000000000 ) ;
#263 = AXIS2_PLACEMENT_3D ( 'NONE', #268, #220, #194 ) ;
#264 = DIRECTION ( 'NONE',  ( 0.000000000000000000, -1.000000000000000000, 0.000000000000000000 ) ) ;
#265 = CARTESIAN_POINT ( 'NONE',  ( 0.000000000000000000, 0.000000000000000000, 0.000000000000000000 ) ) ;
#266 = LINE ( 'NONE', #286, #262 ) ;
#267 = EDGE_CURVE ( 'NONE', #81, #302, #83, .T. ) ;
#268 = CARTESIAN_POINT ( 'NONE',  ( -4.450000000000000178, 5.449678256205721784E-16, 5.199999999999982414 ) ) ;
#269 = DIRECTION ( 'NONE',  ( 1.000000000000000000, 0.000000000000000000, 0.000000000000000000 ) ) ;
#270 = CARTESIAN_POINT ( 'NONE',  ( 0.000000000000000000, 0.000000000000000000, 505.0000000000000000 ) ) ;
#271 = CC_DESIGN_DATE_AND_TIME_ASSIGNMENT ( #108, #200, ( #297 ) ) ;
#272 = DIRECTION ( 'NONE',  ( 1.000000000000000000, 0.000000000000000000, 0.000000000000000000 ) ) ;
#273 = APPROVAL_PERSON_ORGANIZATION ( #82, #307, #281 ) ;
#274 = CARTESIAN_POINT ( 'NONE',  ( 0.000000000000000000, 0.000000000000000000, 0.000000000000000000 ) ) ;
#275 = EDGE_CURVE ( 'NONE', #92, #81, #296, .T. ) ;
#276 = CALENDAR_DATE ( 2022, 7, 7 ) ;
#277 = AXIS2_PLACEMENT_3D ( 'NONE', #295, #219, #174 ) ;
#278 = CC_DESIGN_APPROVAL ( #104, ( #297 ) ) ;
#279 = MANIFOLD_SOLID_BREP ( 'Zaoblit1', #51 ) ;
#280 = EDGE_LOOP ( 'NONE', ( #70, #21, #116, #19 ) ) ;
#281 = APPROVAL_ROLE ( '' ) ;
#282 = EDGE_LOOP ( 'NONE', ( #290, #300, #224, #37 ) ) ;
#283 = AXIS2_PLACEMENT_3D ( 'NONE', #243, #11, #126 ) ;
#284 = ORIENTED_EDGE ( 'NONE', *, *, #68, .F. ) ;
#285 = ORIENTED_EDGE ( 'NONE', *, *, #47, .T. ) ;
#286 = CARTESIAN_POINT ( 'NONE',  ( 4.250000000000000000, 5.204748896376250699E-16, 505.0000000000000000 ) ) ;
#287 = AXIS2_PLACEMENT_3D ( 'NONE', #31, #292, #172 ) ;
#288 = FACE_OUTER_BOUND ( 'NONE', #145, .T. ) ;
#289 = CARTESIAN_POINT ( 'NONE',  ( 4.250000000000000000, 5.204748896376250699E-16, 505.0000000000000000 ) ) ;
#290 = ORIENTED_EDGE ( 'NONE', *, *, #14, .F. ) ;
#291 = AXIS2_PLACEMENT_3D ( 'NONE', #142, #264, #27 ) ;
#292 = DIRECTION ( 'NONE',  ( 0.000000000000000000, 0.000000000000000000, 1.000000000000000000 ) ) ;
#293 = CARTESIAN_POINT ( 'NONE',  ( 0.000000000000000000, 0.000000000000000000, 5.000000000000000000 ) ) ;
#294 = EDGE_CURVE ( 'NONE', #204, #87, #112, .T. ) ;
#295 = CARTESIAN_POINT ( 'NONE',  ( 0.000000000000000000, 0.000000000000000000, 505.0000000000000000 ) ) ;
#296 = LINE ( 'NONE', #101, #111 ) ;
#297 = SECURITY_CLASSIFICATION ( '', '', #132 ) ;
#298 = ADVANCED_FACE ( 'NONE', ( #52 ), #173, .T. ) ;
#299 = MECHANICAL_CONTEXT ( 'NONE', #119, 'mechanical' ) ;
#300 = ORIENTED_EDGE ( 'NONE', *, *, #245, .F. ) ;
#301 = PERSON_AND_ORGANIZATION ( #22, #235 ) ;
#302 = VERTEX_POINT ( 'NONE', #53 ) ;
#303 = AXIS2_PLACEMENT_3D ( 'NONE', #69, #3, #91 ) ;
#304 = COORDINATED_UNIVERSAL_TIME_OFFSET ( 1, 0, .AHEAD. ) ;
#305 = ORIENTED_EDGE ( 'NONE', *, *, #197, .F. ) ;
#306 = EDGE_CURVE ( 'NONE', #202, #87, #105, .T. ) ;
#307 = APPROVAL ( #223, 'NEURÈENÝ' ) ;
ENDSEC;
END-ISO-10303-21;
