ISO-10303-21;
HEADER;
FILE_DESCRIPTION (( 'STEP AP203' ),
    '1' );
FILE_NAME ('a8bc.STEP',
    '2022-07-07T12:56:20',
    ( '' ),
    ( '' ),
    'SwSTEP 2.0',
    'SolidWorks 2019',
    '' );
FILE_SCHEMA (( 'CONFIG_CONTROL_DESIGN' ));
ENDSEC;

DATA;
#1 = ORIENTED_EDGE ( 'NONE', *, *, #273, .T. ) ;
#2 = CIRCLE ( 'NONE', #109, 2.500000000000000000 ) ;
#3 = DIRECTION ( 'NONE',  ( 0.000000000000000000, 0.000000000000000000, 1.000000000000000000 ) ) ;
#4 = CARTESIAN_POINT ( 'NONE',  ( 2.500000000000000000, 3.061616997868383141E-16, 0.000000000000000000 ) ) ;
#5 = CYLINDRICAL_SURFACE ( 'NONE', #180, 2.500000000000000000 ) ;
#6 = CARTESIAN_POINT ( 'NONE',  ( -1.450000000000000178, 1.775737858763662163E-16, 2.200000000000007283 ) ) ;
#7 = PERSON_AND_ORGANIZATION_ROLE ( 'classification_officer' ) ;
#8 = CIRCLE ( 'NONE', #43, 1.250000000000000000 ) ;
#9 = PERSON_AND_ORGANIZATION ( #201, #150 ) ;
#10 = EDGE_CURVE ( 'NONE', #297, #44, #115, .T. ) ;
#11 = PERSON_AND_ORGANIZATION ( #201, #150 ) ;
#12 = APPROVAL_DATE_TIME ( #129, #55 ) ;
#13 = CC_DESIGN_SECURITY_CLASSIFICATION ( #105, ( #92 ) ) ;
#14 = ORIENTED_EDGE ( 'NONE', *, *, #18, .T. ) ;
#15 = MECHANICAL_CONTEXT ( 'NONE', #298, 'mechanical' ) ;
#16 = ORIENTED_EDGE ( 'NONE', *, *, #18, .F. ) ;
#17 = CARTESIAN_POINT ( 'NONE',  ( 0.000000000000000000, 0.000000000000000000, 2.200000000000007283 ) ) ;
#18 = EDGE_CURVE ( 'NONE', #36, #199, #120, .T. ) ;
#19 = DIRECTION ( 'NONE',  ( 1.000000000000000000, 0.000000000000000000, -0.000000000000000000 ) ) ;
#20 = ORIENTED_EDGE ( 'NONE', *, *, #158, .F. ) ;
#21 = VECTOR ( 'NONE', #152, 1000.000000000000000 ) ;
#22 = DIRECTION ( 'NONE',  ( 0.000000000000000000, 0.000000000000000000, 1.000000000000000000 ) ) ;
#23 = ADVANCED_FACE ( 'NONE', ( #236 ), #184, .T. ) ;
#24 = ORIENTED_EDGE ( 'NONE', *, *, #222, .F. ) ;
#25 = EDGE_LOOP ( 'NONE', ( #112, #110, #159, #65 ) ) ;
#26 = LINE ( 'NONE', #125, #260 ) ;
#27 = CARTESIAN_POINT ( 'NONE',  ( -2.500000000000000000, 0.000000000000000000, 2.000000000000000000 ) ) ;
#28 = CARTESIAN_POINT ( 'NONE',  ( 1.250000000000000000, 1.530808498934191571E-16, 162.0000000000000000 ) ) ;
#29 = FACE_OUTER_BOUND ( 'NONE', #58, .T. ) ;
#30 = EDGE_CURVE ( 'NONE', #130, #108, #188, .T. ) ;
#31 = DIRECTION ( 'NONE',  ( -1.000000000000000000, 0.000000000000000000, 0.000000000000000000 ) ) ;
#32 = APPROVAL_DATE_TIME ( #240, #185 ) ;
#33 = MANIFOLD_SOLID_BREP ( 'Zaoblit1', #78 ) ;
#34 = ORIENTED_EDGE ( 'NONE', *, *, #226, .F. ) ;
#35 = ADVANCED_FACE ( 'NONE', ( #252 ), #144, .T. ) ;
#36 = VERTEX_POINT ( 'NONE', #90 ) ;
#37 = ORIENTED_EDGE ( 'NONE', *, *, #278, .F. ) ;
#38 = AXIS2_PLACEMENT_3D ( 'NONE', #41, #139, #230 ) ;
#39 = LINE ( 'NONE', #74, #160 ) ;
#40 = FACE_BOUND ( 'NONE', #134, .T. ) ;
#41 = CARTESIAN_POINT ( 'NONE',  ( 1.450000000000000178, 0.000000000000000000, 2.200000000000007283 ) ) ;
#42 = CC_DESIGN_DATE_AND_TIME_ASSIGNMENT ( #266, #200, ( #173 ) ) ;
#43 = AXIS2_PLACEMENT_3D ( 'NONE', #259, #228, #204 ) ;
#44 = VERTEX_POINT ( 'NONE', #27 ) ;
#45 = ORIENTED_EDGE ( 'NONE', *, *, #306, .F. ) ;
#46 = DIRECTION ( 'NONE',  ( -1.000000000000000000, 0.000000000000000000, 0.000000000000000000 ) ) ;
#47 = CYLINDRICAL_SURFACE ( 'NONE', #121, 1.250000000000000000 ) ;
#48 = DIRECTION ( 'NONE',  ( 1.000000000000000000, 0.000000000000000000, -0.000000000000000000 ) ) ;
#49 = DIRECTION ( 'NONE',  ( 1.000000000000000000, 0.000000000000000000, 0.000000000000000000 ) ) ;
#50 = CARTESIAN_POINT ( 'NONE',  ( 0.000000000000000000, 0.000000000000000000, 0.000000000000000000 ) ) ;
#51 = AXIS2_PLACEMENT_3D ( 'NONE', #299, #216, #70 ) ;
#52 = APPROVAL_STATUS ( 'not_yet_approved' ) ;
#53 = PERSON_AND_ORGANIZATION ( #201, #150 ) ;
#54 = APPROVAL_STATUS ( 'not_yet_approved' ) ;
#55 = APPROVAL ( #154, 'NEURÈENÝ' ) ;
#56 = ORIENTED_EDGE ( 'NONE', *, *, #138, .T. ) ;
#57 = CIRCLE ( 'NONE', #263, 1.250000000000000000 ) ;
#58 = EDGE_LOOP ( 'NONE', ( #63, #20 ) ) ;
#59 = DIRECTION ( 'NONE',  ( -0.000000000000000000, -0.000000000000000000, -1.000000000000000000 ) ) ;
#60 = LOCAL_TIME ( 14, 56, 20.00000000000000000, #127 ) ;
#61 = ORIENTED_EDGE ( 'NONE', *, *, #30, .T. ) ;
#62 = DIRECTION ( 'NONE',  ( 0.000000000000000000, 0.000000000000000000, 1.000000000000000000 ) ) ;
#63 = ORIENTED_EDGE ( 'NONE', *, *, #84, .F. ) ;
#64 = CC_DESIGN_DATE_AND_TIME_ASSIGNMENT ( #195, #219, ( #105 ) ) ;
#65 = ORIENTED_EDGE ( 'NONE', *, *, #84, .T. ) ;
#66 = PLANE ( 'NONE',  #285 ) ;
#67 = DIRECTION ( 'NONE',  ( 1.000000000000000000, 0.000000000000000000, -0.000000000000000000 ) ) ;
#68 = EDGE_CURVE ( 'NONE', #44, #297, #2, .T. ) ;
#69 = CARTESIAN_POINT ( 'NONE',  ( 0.000000000000000000, 0.000000000000000000, 0.000000000000000000 ) ) ;
#70 = DIRECTION ( 'NONE',  ( 1.000000000000000000, 0.000000000000000000, 0.000000000000000000 ) ) ;
#71 = AXIS2_PLACEMENT_3D ( 'NONE', #116, #96, #117 ) ;
#72 = AXIS2_PLACEMENT_3D ( 'NONE', #6, #181, #170 ) ;
#73 = LOCAL_TIME ( 14, 56, 20.00000000000000000, #153 ) ;
#74 = CARTESIAN_POINT ( 'NONE',  ( 2.500000000000000000, 3.061616997868383141E-16, 2.000000000000000000 ) ) ;
#75 =( NAMED_UNIT ( * ) PLANE_ANGLE_UNIT ( ) SI_UNIT ( $, .RADIAN. ) );
#76 = APPLICATION_CONTEXT ( 'configuration controlled 3d designs of mechanical parts and assemblies' ) ;
#77 = CALENDAR_DATE ( 2022, 7, 7 ) ;
#78 = CLOSED_SHELL ( 'NONE', ( #265, #206, #23, #290, #193, #133, #35, #81, #166 ) ) ;
#79 = AXIS2_PLACEMENT_3D ( 'NONE', #113, #123, #237 ) ;
#80 = APPROVAL_ROLE ( '' ) ;
#81 = ADVANCED_FACE ( 'NONE', ( #210 ), #66, .T. ) ;
#82 = AXIS2_PLACEMENT_3D ( 'NONE', #305, #141, #93 ) ;
#83 = CC_DESIGN_APPROVAL ( #55, ( #173 ) ) ;
#84 = EDGE_CURVE ( 'NONE', #85, #89, #100, .T. ) ;
#85 = VERTEX_POINT ( 'NONE', #169 ) ;
#86 = CARTESIAN_POINT ( 'NONE',  ( 0.000000000000000000, 0.000000000000000000, 2.000000000000000000 ) ) ;
#87 = CIRCLE ( 'NONE', #72, 0.2000000000000000944 ) ;
#88 = FACE_OUTER_BOUND ( 'NONE', #25, .T. ) ;
#89 = VERTEX_POINT ( 'NONE', #4 ) ;
#90 = CARTESIAN_POINT ( 'NONE',  ( 1.450000000000000178, 0.000000000000000000, 2.000000000000003553 ) ) ;
#91 = ORIENTED_EDGE ( 'NONE', *, *, #306, .T. ) ;
#92 = PRODUCT_DEFINITION_FORMATION_WITH_SPECIFIED_SOURCE ( 'LIBOVOLNÝ', '', #162, .NOT_KNOWN. ) ;
#93 = DIRECTION ( 'NONE',  ( 1.000000000000000000, 0.000000000000000000, 0.000000000000000000 ) ) ;
#94 = EDGE_CURVE ( 'NONE', #293, #36, #142, .T. ) ;
#95 = CARTESIAN_POINT ( 'NONE',  ( -1.250000000000000000, 0.000000000000000000, 2.200000000000007283 ) ) ;
#96 = DIRECTION ( 'NONE',  ( -0.000000000000000000, -0.000000000000000000, -1.000000000000000000 ) ) ;
#97 = CARTESIAN_POINT ( 'NONE',  ( 0.000000000000000000, 0.000000000000000000, 2.000000000000000000 ) ) ;
#98 = CARTESIAN_POINT ( 'NONE',  ( -1.250000000000000000, 0.000000000000000000, 162.0000000000000000 ) ) ;
#99 = CC_DESIGN_PERSON_AND_ORGANIZATION_ASSIGNMENT ( #11, #289, ( #173 ) ) ;
#100 = CIRCLE ( 'NONE', #279, 2.500000000000000000 ) ;
#101 = CIRCLE ( 'NONE', #213, 2.500000000000000000 ) ;
#102 = COORDINATED_UNIVERSAL_TIME_OFFSET ( 1, 0, .AHEAD. ) ;
#103 = DATE_AND_TIME ( #243, #174 ) ;
#104 = COORDINATED_UNIVERSAL_TIME_OFFSET ( 1, 0, .AHEAD. ) ;
#105 = SECURITY_CLASSIFICATION ( '', '', #217 ) ;
#106 = PERSON_AND_ORGANIZATION ( #201, #150 ) ;
#107 = CC_DESIGN_PERSON_AND_ORGANIZATION_ASSIGNMENT ( #53, #291, ( #92 ) ) ;
#108 = VERTEX_POINT ( 'NONE', #114 ) ;
#109 = AXIS2_PLACEMENT_3D ( 'NONE', #190, #187, #214 ) ;
#110 = ORIENTED_EDGE ( 'NONE', *, *, #68, .F. ) ;
#111 = DIRECTION ( 'NONE',  ( 0.000000000000000000, 0.000000000000000000, 1.000000000000000000 ) ) ;
#112 = ORIENTED_EDGE ( 'NONE', *, *, #273, .F. ) ;
#113 = CARTESIAN_POINT ( 'NONE',  ( 0.000000000000000000, 0.000000000000000000, 2.000000000000000000 ) ) ;
#114 = CARTESIAN_POINT ( 'NONE',  ( -1.250000000000000000, 0.000000000000000000, 162.0000000000000000 ) ) ;
#115 = CIRCLE ( 'NONE', #220, 2.500000000000000000 ) ;
#116 = CARTESIAN_POINT ( 'NONE',  ( 0.000000000000000000, 0.000000000000000000, 162.0000000000000000 ) ) ;
#117 = DIRECTION ( 'NONE',  ( -1.000000000000000000, 0.000000000000000000, 0.000000000000000000 ) ) ;
#118 = DIRECTION ( 'NONE',  ( 1.000000000000000000, 0.000000000000000000, 0.000000000000000000 ) ) ;
#119 = CARTESIAN_POINT ( 'NONE',  ( 0.000000000000000000, 0.000000000000000000, 0.000000000000000000 ) ) ;
#120 = CIRCLE ( 'NONE', #82, 1.450000000000000178 ) ;
#121 = AXIS2_PLACEMENT_3D ( 'NONE', #231, #59, #31 ) ;
#122 = CARTESIAN_POINT ( 'NONE',  ( 0.000000000000000000, 0.000000000000000000, 2.000000000000000000 ) ) ;
#123 = DIRECTION ( 'NONE',  ( -0.000000000000000000, -0.000000000000000000, -1.000000000000000000 ) ) ;
#124 = CARTESIAN_POINT ( 'NONE',  ( 0.000000000000000000, 0.000000000000000000, 0.000000000000000000 ) ) ;
#125 = CARTESIAN_POINT ( 'NONE',  ( -2.500000000000000000, 0.000000000000000000, 2.000000000000000000 ) ) ;
#126 = PERSON_AND_ORGANIZATION_ROLE ( 'design_supplier' ) ;
#127 = COORDINATED_UNIVERSAL_TIME_OFFSET ( 1, 0, .AHEAD. ) ;
#128 = CALENDAR_DATE ( 2022, 7, 7 ) ;
#129 = DATE_AND_TIME ( #261, #60 ) ;
#130 = VERTEX_POINT ( 'NONE', #258 ) ;
#131 = VECTOR ( 'NONE', #161, 1000.000000000000000 ) ;
#132 = APPLICATION_PROTOCOL_DEFINITION ( 'international standard', 'config_control_design', 1994, #298 ) ;
#133 = ADVANCED_FACE ( 'NONE', ( #29 ), #151, .F. ) ;
#134 = EDGE_LOOP ( 'NONE', ( #14, #147 ) ) ;
#135 = CC_DESIGN_APPROVAL ( #163, ( #105 ) ) ;
#136 = CARTESIAN_POINT ( 'NONE',  ( 1.250000000000000000, 1.530808498934191571E-16, 2.200000000000007283 ) ) ;
#137 = CARTESIAN_POINT ( 'NONE',  ( 0.000000000000000000, 0.000000000000000000, 162.0000000000000000 ) ) ;
#138 = EDGE_CURVE ( 'NONE', #108, #192, #194, .T. ) ;
#139 = DIRECTION ( 'NONE',  ( 0.000000000000000000, -1.000000000000000000, 0.000000000000000000 ) ) ;
#140 = PLANE ( 'NONE',  #167 ) ;
#141 = DIRECTION ( 'NONE',  ( -0.000000000000000000, -0.000000000000000000, -1.000000000000000000 ) ) ;
#142 = CIRCLE ( 'NONE', #38, 0.2000000000000000944 ) ;
#143 = CIRCLE ( 'NONE', #79, 1.450000000000000178 ) ;
#144 = CYLINDRICAL_SURFACE ( 'NONE', #71, 1.250000000000000000 ) ;
#145 = PRODUCT_DEFINITION_SHAPE ( 'NONE', 'NONE',  #173 ) ;
#146 = ORIENTED_EDGE ( 'NONE', *, *, #94, .T. ) ;
#147 = ORIENTED_EDGE ( 'NONE', *, *, #244, .T. ) ;
#148 = DIRECTION ( 'NONE',  ( 1.000000000000000000, 0.000000000000000000, 0.000000000000000000 ) ) ;
#149 = AXIS2_PLACEMENT_3D ( 'NONE', #124, #238, #48 ) ;
#150 = ORGANIZATION ( 'NEURÈENÝ', 'NEURÈENÝ', '' ) ;
#151 = PLANE ( 'NONE',  #149 ) ;
#152 = DIRECTION ( 'NONE',  ( -0.000000000000000000, -0.000000000000000000, -1.000000000000000000 ) ) ;
#153 = COORDINATED_UNIVERSAL_TIME_OFFSET ( 1, 0, .AHEAD. ) ;
#154 = APPROVAL_STATUS ( 'not_yet_approved' ) ;
#155 = COORDINATED_UNIVERSAL_TIME_OFFSET ( 1, 0, .AHEAD. ) ;
#156 = PERSON_AND_ORGANIZATION_ROLE ( 'design_owner' ) ;
#157 = DIRECTION ( 'NONE',  ( 0.000000000000000000, 0.000000000000000000, 1.000000000000000000 ) ) ;
#158 = EDGE_CURVE ( 'NONE', #89, #85, #101, .T. ) ;
#159 = ORIENTED_EDGE ( 'NONE', *, *, #226, .T. ) ;
#160 = VECTOR ( 'NONE', #281, 1000.000000000000000 ) ;
#161 = DIRECTION ( 'NONE',  ( -0.000000000000000000, -0.000000000000000000, -1.000000000000000000 ) ) ;
#162 = PRODUCT ( 'a8bc', 'a8bc', '', ( #15 ) ) ;
#163 = APPROVAL ( #52, 'NEURÈENÝ' ) ;
#164 = ORIENTED_EDGE ( 'NONE', *, *, #158, .T. ) ;
#165 = EDGE_LOOP ( 'NONE', ( #276, #182, #91, #303 ) ) ;
#166 = ADVANCED_FACE ( 'NONE', ( #248 ), #189, .F. ) ;
#167 = AXIS2_PLACEMENT_3D ( 'NONE', #86, #202, #19 ) ;
#168 = DIRECTION ( 'NONE',  ( 0.000000000000000000, 0.000000000000000000, 1.000000000000000000 ) ) ;
#169 = CARTESIAN_POINT ( 'NONE',  ( -2.500000000000000000, 0.000000000000000000, 0.000000000000000000 ) ) ;
#170 = DIRECTION ( 'NONE',  ( -1.000000000000000000, 1.224646799147353207E-16, 0.000000000000000000 ) ) ;
#171 = DIRECTION ( 'NONE',  ( 1.000000000000000000, 0.000000000000000000, 0.000000000000000000 ) ) ;
#172 = CARTESIAN_POINT ( 'NONE',  ( 2.500000000000000000, 3.061616997868383141E-16, 2.000000000000000000 ) ) ;
#173 = PRODUCT_DEFINITION ( 'NEZNÁMÝ', '', #92, #175 ) ;
#174 = LOCAL_TIME ( 14, 56, 20.00000000000000000, #155 ) ;
#175 = DESIGN_CONTEXT ( 'detailed design', #76, 'design' ) ;
#176 = APPROVAL_ROLE ( '' ) ;
#177 = PERSON_AND_ORGANIZATION ( #201, #150 ) ;
#178 = DIRECTION ( 'NONE',  ( 1.000000000000000000, 0.000000000000000000, 0.000000000000000000 ) ) ;
#179 = CALENDAR_DATE ( 2022, 7, 7 ) ;
#180 = AXIS2_PLACEMENT_3D ( 'NONE', #97, #246, #283 ) ;
#181 = DIRECTION ( 'NONE',  ( 1.224646799147353207E-16, 1.000000000000000000, -0.000000000000000000 ) ) ;
#182 = ORIENTED_EDGE ( 'NONE', *, *, #278, .T. ) ;
#183 = TOROIDAL_SURFACE ( 'NONE', #292, 1.450000000000000178, 0.2000000000000000111 ) ;
#184 = CYLINDRICAL_SURFACE ( 'NONE', #205, 2.500000000000000000 ) ;
#185 = APPROVAL ( #54, 'NEURÈENÝ' ) ;
#186 = ORIENTED_EDGE ( 'NONE', *, *, #10, .F. ) ;
#187 = DIRECTION ( 'NONE',  ( 0.000000000000000000, 0.000000000000000000, 1.000000000000000000 ) ) ;
#188 = CIRCLE ( 'NONE', #271, 1.250000000000000000 ) ;
#189 = TOROIDAL_SURFACE ( 'NONE', #51, 1.450000000000000178, 0.2000000000000000111 ) ;
#190 = CARTESIAN_POINT ( 'NONE',  ( 0.000000000000000000, 0.000000000000000000, 2.000000000000000000 ) ) ;
#191 = DIRECTION ( 'NONE',  ( 1.000000000000000000, 0.000000000000000000, 0.000000000000000000 ) ) ;
#192 = VERTEX_POINT ( 'NONE', #95 ) ;
#193 = ADVANCED_FACE ( 'NONE', ( #40, #286 ), #140, .T. ) ;
#194 = LINE ( 'NONE', #98, #21 ) ;
#195 = DATE_AND_TIME ( #128, #247 ) ;
#196 = APPROVAL_DATE_TIME ( #103, #163 ) ;
#197 = APPROVAL_PERSON_ORGANIZATION ( #106, #55, #241 ) ;
#198 = APPLICATION_PROTOCOL_DEFINITION ( 'international standard', 'config_control_design', 1994, #76 ) ;
#199 = VERTEX_POINT ( 'NONE', #256 ) ;
#200 = DATE_TIME_ROLE ( 'creation_date' ) ;
#201 = PERSON ( 'NEURÈENÝ', 'NEURÈENÝ', 'NEURÈENÝ', ('NEURÈENÝ'), ('NEURÈENÝ'), ('NEURÈENÝ') ) ;
#202 = DIRECTION ( 'NONE',  ( 0.000000000000000000, 0.000000000000000000, 1.000000000000000000 ) ) ;
#203 = EDGE_LOOP ( 'NONE', ( #272, #282, #16, #307 ) ) ;
#204 = DIRECTION ( 'NONE',  ( 1.000000000000000000, 0.000000000000000000, 0.000000000000000000 ) ) ;
#205 = AXIS2_PLACEMENT_3D ( 'NONE', #234, #275, #46 ) ;
#206 = ADVANCED_FACE ( 'NONE', ( #274 ), #47, .T. ) ;
#207 = APPROVAL_PERSON_ORGANIZATION ( #294, #185, #176 ) ;
#208 = ORIENTED_EDGE ( 'NONE', *, *, #222, .T. ) ;
#209 = CC_DESIGN_PERSON_AND_ORGANIZATION_ASSIGNMENT ( #177, #7, ( #105 ) ) ;
#210 = FACE_OUTER_BOUND ( 'NONE', #267, .T. ) ;
#211 = ORIENTED_EDGE ( 'NONE', *, *, #244, .F. ) ;
#212 = FACE_OUTER_BOUND ( 'NONE', #203, .T. ) ;
#213 = AXIS2_PLACEMENT_3D ( 'NONE', #119, #3, #229 ) ;
#214 = DIRECTION ( 'NONE',  ( 1.000000000000000000, 0.000000000000000000, 0.000000000000000000 ) ) ;
#215 = DIRECTION ( 'NONE',  ( -0.000000000000000000, -0.000000000000000000, -1.000000000000000000 ) ) ;
#216 = DIRECTION ( 'NONE',  ( 0.000000000000000000, 0.000000000000000000, 1.000000000000000000 ) ) ;
#217 = SECURITY_CLASSIFICATION_LEVEL ( 'unclassified' ) ;
#218 = CIRCLE ( 'NONE', #268, 1.250000000000000000 ) ;
#219 = DATE_TIME_ROLE ( 'classification_date' ) ;
#220 = AXIS2_PLACEMENT_3D ( 'NONE', #122, #233, #118 ) ;
#221 = EDGE_LOOP ( 'NONE', ( #37, #24, #56, #249 ) ) ;
#222 = EDGE_CURVE ( 'NONE', #108, #130, #218, .T. ) ;
#223 =( NAMED_UNIT ( * ) SI_UNIT ( $, .STERADIAN. ) SOLID_ANGLE_UNIT ( ) );
#224 = ORIENTED_EDGE ( 'NONE', *, *, #10, .T. ) ;
#225 = EDGE_LOOP ( 'NONE', ( #186, #1, #164, #34 ) ) ;
#226 = EDGE_CURVE ( 'NONE', #44, #85, #26, .T. ) ;
#227 = LOCAL_TIME ( 14, 56, 20.00000000000000000, #104 ) ;
#228 = DIRECTION ( 'NONE',  ( 0.000000000000000000, 0.000000000000000000, 1.000000000000000000 ) ) ;
#229 = DIRECTION ( 'NONE',  ( 1.000000000000000000, 0.000000000000000000, 0.000000000000000000 ) ) ;
#230 = DIRECTION ( 'NONE',  ( 0.000000000000000000, 0.000000000000000000, -1.000000000000000000 ) ) ;
#231 = CARTESIAN_POINT ( 'NONE',  ( 0.000000000000000000, 0.000000000000000000, 162.0000000000000000 ) ) ;
#232 = CARTESIAN_POINT ( 'NONE',  ( 0.000000000000000000, 0.000000000000000000, 162.0000000000000000 ) ) ;
#233 = DIRECTION ( 'NONE',  ( 0.000000000000000000, 0.000000000000000000, 1.000000000000000000 ) ) ;
#234 = CARTESIAN_POINT ( 'NONE',  ( 0.000000000000000000, 0.000000000000000000, 2.000000000000000000 ) ) ;
#235 = CC_DESIGN_PERSON_AND_ORGANIZATION_ASSIGNMENT ( #9, #156, ( #162 ) ) ;
#236 = FACE_OUTER_BOUND ( 'NONE', #225, .T. ) ;
#237 = DIRECTION ( 'NONE',  ( 1.000000000000000000, 0.000000000000000000, 0.000000000000000000 ) ) ;
#238 = DIRECTION ( 'NONE',  ( 0.000000000000000000, 0.000000000000000000, 1.000000000000000000 ) ) ;
#239 = DIRECTION ( 'NONE',  ( 0.000000000000000000, 0.000000000000000000, 1.000000000000000000 ) ) ;
#240 = DATE_AND_TIME ( #77, #73 ) ;
#241 = APPROVAL_ROLE ( '' ) ;
#242 =( GEOMETRIC_REPRESENTATION_CONTEXT ( 3 ) GLOBAL_UNCERTAINTY_ASSIGNED_CONTEXT ( ( #284 ) ) GLOBAL_UNIT_ASSIGNED_CONTEXT ( ( #250, #75, #223 ) ) REPRESENTATION_CONTEXT ( 'NONE', 'WORKASPACE' ) );
#243 = CALENDAR_DATE ( 2022, 7, 7 ) ;
#244 = EDGE_CURVE ( 'NONE', #199, #36, #143, .T. ) ;
#245 = EDGE_CURVE ( 'NONE', #192, #199, #87, .T. ) ;
#246 = DIRECTION ( 'NONE',  ( -0.000000000000000000, -0.000000000000000000, -1.000000000000000000 ) ) ;
#247 = LOCAL_TIME ( 14, 56, 20.00000000000000000, #102 ) ;
#248 = FACE_OUTER_BOUND ( 'NONE', #296, .T. ) ;
#249 = ORIENTED_EDGE ( 'NONE', *, *, #301, .T. ) ;
#250 =( LENGTH_UNIT ( ) NAMED_UNIT ( * ) SI_UNIT ( .MILLI., .METRE. ) );
#251 = ORIENTED_EDGE ( 'NONE', *, *, #245, .F. ) ;
#252 = FACE_OUTER_BOUND ( 'NONE', #221, .T. ) ;
#253 = CC_DESIGN_APPROVAL ( #185, ( #92 ) ) ;
#254 = DIRECTION ( 'NONE',  ( 0.000000000000000000, 0.000000000000000000, 1.000000000000000000 ) ) ;
#255 = EDGE_LOOP ( 'NONE', ( #300, #224 ) ) ;
#256 = CARTESIAN_POINT ( 'NONE',  ( -1.450000000000000178, 1.775737858763662409E-16, 2.000000000000003553 ) ) ;
#257 = PRODUCT_RELATED_PRODUCT_CATEGORY ( 'detail', '', ( #162 ) ) ;
#258 = CARTESIAN_POINT ( 'NONE',  ( 1.250000000000000000, 1.530808498934191571E-16, 162.0000000000000000 ) ) ;
#259 = CARTESIAN_POINT ( 'NONE',  ( 0.000000000000000000, 0.000000000000000000, 2.200000000000007283 ) ) ;
#260 = VECTOR ( 'NONE', #215, 1000.000000000000000 ) ;
#261 = CALENDAR_DATE ( 2022, 7, 7 ) ;
#262 = PERSON_AND_ORGANIZATION ( #201, #150 ) ;
#263 = AXIS2_PLACEMENT_3D ( 'NONE', #17, #111, #49 ) ;
#264 = SHAPE_DEFINITION_REPRESENTATION ( #145, #269 ) ;
#265 = ADVANCED_FACE ( 'NONE', ( #212 ), #183, .F. ) ;
#266 = DATE_AND_TIME ( #179, #227 ) ;
#267 = EDGE_LOOP ( 'NONE', ( #208, #61 ) ) ;
#268 = AXIS2_PLACEMENT_3D ( 'NONE', #137, #239, #148 ) ;
#269 = ADVANCED_BREP_SHAPE_REPRESENTATION ( 'a8bc', ( #33, #287 ), #242 ) ;
#270 = LINE ( 'NONE', #28, #131 ) ;
#271 = AXIS2_PLACEMENT_3D ( 'NONE', #232, #22, #171 ) ;
#272 = ORIENTED_EDGE ( 'NONE', *, *, #301, .F. ) ;
#273 = EDGE_CURVE ( 'NONE', #297, #89, #39, .T. ) ;
#274 = FACE_OUTER_BOUND ( 'NONE', #165, .T. ) ;
#275 = DIRECTION ( 'NONE',  ( -0.000000000000000000, -0.000000000000000000, -1.000000000000000000 ) ) ;
#276 = ORIENTED_EDGE ( 'NONE', *, *, #30, .F. ) ;
#277 = CARTESIAN_POINT ( 'NONE',  ( 0.000000000000000000, 0.000000000000000000, 162.0000000000000000 ) ) ;
#278 = EDGE_CURVE ( 'NONE', #130, #293, #270, .T. ) ;
#279 = AXIS2_PLACEMENT_3D ( 'NONE', #69, #254, #280 ) ;
#280 = DIRECTION ( 'NONE',  ( 1.000000000000000000, 0.000000000000000000, 0.000000000000000000 ) ) ;
#281 = DIRECTION ( 'NONE',  ( -0.000000000000000000, -0.000000000000000000, -1.000000000000000000 ) ) ;
#282 = ORIENTED_EDGE ( 'NONE', *, *, #245, .T. ) ;
#283 = DIRECTION ( 'NONE',  ( -1.000000000000000000, 0.000000000000000000, 0.000000000000000000 ) ) ;
#284 = UNCERTAINTY_MEASURE_WITH_UNIT (LENGTH_MEASURE( 1.000000000000000082E-05 ), #250, 'distance_accuracy_value', 'NONE');
#285 = AXIS2_PLACEMENT_3D ( 'NONE', #277, #168, #67 ) ;
#286 = FACE_OUTER_BOUND ( 'NONE', #255, .T. ) ;
#287 = AXIS2_PLACEMENT_3D ( 'NONE', #50, #157, #178 ) ;
#288 = PERSON_AND_ORGANIZATION ( #201, #150 ) ;
#289 = PERSON_AND_ORGANIZATION_ROLE ( 'creator' ) ;
#290 = ADVANCED_FACE ( 'NONE', ( #88 ), #5, .T. ) ;
#291 = PERSON_AND_ORGANIZATION_ROLE ( 'creator' ) ;
#292 = AXIS2_PLACEMENT_3D ( 'NONE', #302, #62, #191 ) ;
#293 = VERTEX_POINT ( 'NONE', #136 ) ;
#294 = PERSON_AND_ORGANIZATION ( #201, #150 ) ;
#295 = CC_DESIGN_PERSON_AND_ORGANIZATION_ASSIGNMENT ( #288, #126, ( #92 ) ) ;
#296 = EDGE_LOOP ( 'NONE', ( #251, #45, #146, #211 ) ) ;
#297 = VERTEX_POINT ( 'NONE', #172 ) ;
#298 = APPLICATION_CONTEXT ( 'configuration controlled 3d designs of mechanical parts and assemblies' ) ;
#299 = CARTESIAN_POINT ( 'NONE',  ( 0.000000000000000000, 0.000000000000000000, 2.200000000000007283 ) ) ;
#300 = ORIENTED_EDGE ( 'NONE', *, *, #68, .T. ) ;
#301 = EDGE_CURVE ( 'NONE', #192, #293, #8, .T. ) ;
#302 = CARTESIAN_POINT ( 'NONE',  ( 0.000000000000000000, 0.000000000000000000, 2.200000000000007283 ) ) ;
#303 = ORIENTED_EDGE ( 'NONE', *, *, #138, .F. ) ;
#304 = APPROVAL_PERSON_ORGANIZATION ( #262, #163, #80 ) ;
#305 = CARTESIAN_POINT ( 'NONE',  ( 0.000000000000000000, 0.000000000000000000, 2.000000000000000000 ) ) ;
#306 = EDGE_CURVE ( 'NONE', #293, #192, #57, .T. ) ;
#307 = ORIENTED_EDGE ( 'NONE', *, *, #94, .F. ) ;
ENDSEC;
END-ISO-10303-21;
