ISO-10303-21;
HEADER;
FILE_DESCRIPTION (( 'STEP AP203' ),
    '1' );
FILE_NAME ('4725.STEP',
    '2023-02-12T11:40:09',
    ( '' ),
    ( '' ),
    'SwSTEP 2.0',
    'SolidWorks 2019',
    '' );
FILE_SCHEMA (( 'CONFIG_CONTROL_DESIGN' ));
ENDSEC;

DATA;
#1 = MANIFOLD_SOLID_BREP ( 'Pøidat vysunutím3', #105 ) ;
#2 = CARTESIAN_POINT ( 'NONE',  ( 0.000000000000000000, 0.000000000000000000, 250.0000000000000000 ) ) ;
#3 = CYLINDRICAL_SURFACE ( 'NONE', #235, 6.000000000000000888 ) ;
#4 = VECTOR ( 'NONE', #151, 1000.000000000000000 ) ;
#5 = DIRECTION ( 'NONE',  ( -0.000000000000000000, -0.000000000000000000, -1.000000000000000000 ) ) ;
#6 = CYLINDRICAL_SURFACE ( 'NONE', #160, 3.000000000000000444 ) ;
#7 = FACE_OUTER_BOUND ( 'NONE', #230, .T. ) ;
#8 = AXIS2_PLACEMENT_3D ( 'NONE', #124, #91, #200 ) ;
#9 = DIRECTION ( 'NONE',  ( -0.000000000000000000, -0.000000000000000000, -1.000000000000000000 ) ) ;
#10 = DIRECTION ( 'NONE',  ( 0.000000000000000000, 0.000000000000000000, 1.000000000000000000 ) ) ;
#11 = FACE_OUTER_BOUND ( 'NONE', #96, .T. ) ;
#12 = DIRECTION ( 'NONE',  ( -0.000000000000000000, -0.000000000000000000, -1.000000000000000000 ) ) ;
#13 =( NAMED_UNIT ( * ) PLANE_ANGLE_UNIT ( ) SI_UNIT ( $, .RADIAN. ) );
#14 = AXIS2_PLACEMENT_3D ( 'NONE', #159, #173, #240 ) ;
#15 = SHAPE_DEFINITION_REPRESENTATION ( #234, #202 ) ;
#16 = EDGE_CURVE ( 'NONE', #27, #196, #123, .T. ) ;
#17 = LOCAL_TIME ( 12, 40, 9.000000000000000000, #39 ) ;
#18 = ORIENTED_EDGE ( 'NONE', *, *, #183, .T. ) ;
#19 = COORDINATED_UNIVERSAL_TIME_OFFSET ( 1, 0, .AHEAD. ) ;
#20 = ORIENTED_EDGE ( 'NONE', *, *, #107, .F. ) ;
#21 = PRODUCT_RELATED_PRODUCT_CATEGORY ( 'detail', '', ( #62 ) ) ;
#22 = CALENDAR_DATE ( 2023, 12, 2 ) ;
#23 = ORIENTED_EDGE ( 'NONE', *, *, #93, .T. ) ;
#24 = FACE_OUTER_BOUND ( 'NONE', #212, .T. ) ;
#25 = CARTESIAN_POINT ( 'NONE',  ( 0.000000000000000000, 0.000000000000000000, 5.000000000000000000 ) ) ;
#26 = APPROVAL ( #54, 'NEURÈENÝ' ) ;
#27 = VERTEX_POINT ( 'NONE', #197 ) ;
#28 = APPROVAL_PERSON_ORGANIZATION ( #171, #26, #252 ) ;
#29 = ORIENTED_EDGE ( 'NONE', *, *, #226, .F. ) ;
#30 = CARTESIAN_POINT ( 'NONE',  ( 0.000000000000000000, 0.000000000000000000, 5.000000000000000000 ) ) ;
#31 = LINE ( 'NONE', #181, #254 ) ;
#32 = APPROVAL_ROLE ( '' ) ;
#33 = CARTESIAN_POINT ( 'NONE',  ( 0.000000000000000000, 0.000000000000000000, 0.000000000000000000 ) ) ;
#34 = CC_DESIGN_PERSON_AND_ORGANIZATION_ASSIGNMENT ( #227, #61, ( #177 ) ) ;
#35 = MECHANICAL_CONTEXT ( 'NONE', #102, 'mechanical' ) ;
#36 = CYLINDRICAL_SURFACE ( 'NONE', #246, 3.000000000000000444 ) ;
#37 = COORDINATED_UNIVERSAL_TIME_OFFSET ( 1, 0, .AHEAD. ) ;
#38 = COORDINATED_UNIVERSAL_TIME_OFFSET ( 1, 0, .AHEAD. ) ;
#39 = COORDINATED_UNIVERSAL_TIME_OFFSET ( 1, 0, .AHEAD. ) ;
#40 = DATE_AND_TIME ( #99, #152 ) ;
#41 = APPROVAL ( #206, 'NEURÈENÝ' ) ;
#42 = ORIENTED_EDGE ( 'NONE', *, *, #179, .F. ) ;
#43 = ORIENTED_EDGE ( 'NONE', *, *, #192, .F. ) ;
#44 = CARTESIAN_POINT ( 'NONE',  ( 0.000000000000000000, 0.000000000000000000, 5.000000000000000000 ) ) ;
#45 = ADVANCED_FACE ( 'NONE', ( #67 ), #3, .T. ) ;
#46 = DIRECTION ( 'NONE',  ( 0.000000000000000000, 0.000000000000000000, 1.000000000000000000 ) ) ;
#47 = PLANE ( 'NONE',  #8 ) ;
#48 = DIRECTION ( 'NONE',  ( -1.000000000000000000, 0.000000000000000000, 0.000000000000000000 ) ) ;
#49 = ADVANCED_FACE ( 'NONE', ( #24 ), #6, .T. ) ;
#50 = CARTESIAN_POINT ( 'NONE',  ( -3.000000000000000444, 0.000000000000000000, 5.000000000000000000 ) ) ;
#51 = CARTESIAN_POINT ( 'NONE',  ( 0.000000000000000000, 0.000000000000000000, 250.0000000000000000 ) ) ;
#52 = AXIS2_PLACEMENT_3D ( 'NONE', #30, #241, #71 ) ;
#53 = APPLICATION_PROTOCOL_DEFINITION ( 'international standard', 'config_control_design', 1994, #188 ) ;
#54 = APPROVAL_STATUS ( 'not_yet_approved' ) ;
#55 = CC_DESIGN_APPROVAL ( #26, ( #149 ) ) ;
#56 = ADVANCED_FACE ( 'NONE', ( #7 ), #126, .F. ) ;
#57 = VERTEX_POINT ( 'NONE', #218 ) ;
#58 = APPROVAL ( #191, 'NEURÈENÝ' ) ;
#59 = EDGE_LOOP ( 'NONE', ( #23, #143 ) ) ;
#60 = CC_DESIGN_APPROVAL ( #41, ( #222 ) ) ;
#61 = PERSON_AND_ORGANIZATION_ROLE ( 'classification_officer' ) ;
#62 = PRODUCT ( '4725', '4725', '', ( #35 ) ) ;
#63 = ORIENTED_EDGE ( 'NONE', *, *, #153, .F. ) ;
#64 = LINE ( 'NONE', #138, #244 ) ;
#65 = ORGANIZATION ( 'NEURÈENÝ', 'NEURÈENÝ', '' ) ;
#66 = DIRECTION ( 'NONE',  ( -1.000000000000000000, 0.000000000000000000, 0.000000000000000000 ) ) ;
#67 = FACE_OUTER_BOUND ( 'NONE', #255, .T. ) ;
#68 = CC_DESIGN_PERSON_AND_ORGANIZATION_ASSIGNMENT ( #129, #221, ( #62 ) ) ;
#69 = ORIENTED_EDGE ( 'NONE', *, *, #107, .T. ) ;
#70 = AXIS2_PLACEMENT_3D ( 'NONE', #51, #94, #113 ) ;
#71 = DIRECTION ( 'NONE',  ( 1.000000000000000000, 0.000000000000000000, 0.000000000000000000 ) ) ;
#72 = CARTESIAN_POINT ( 'NONE',  ( 6.000000000000000888, 7.347880794884120722E-16, 5.000000000000000000 ) ) ;
#73 = DIRECTION ( 'NONE',  ( 1.000000000000000000, 0.000000000000000000, 0.000000000000000000 ) ) ;
#74 = EDGE_CURVE ( 'NONE', #82, #216, #195, .T. ) ;
#75 = UNCERTAINTY_MEASURE_WITH_UNIT (LENGTH_MEASURE( 1.000000000000000082E-05 ), #165, 'distance_accuracy_value', 'NONE');
#76 = CARTESIAN_POINT ( 'NONE',  ( 0.000000000000000000, 0.000000000000000000, 250.0000000000000000 ) ) ;
#77 = APPROVAL_PERSON_ORGANIZATION ( #116, #58, #115 ) ;
#78 = DIRECTION ( 'NONE',  ( 1.000000000000000000, 0.000000000000000000, 0.000000000000000000 ) ) ;
#79 = APPROVAL_DATE_TIME ( #167, #26 ) ;
#80 = PERSON_AND_ORGANIZATION_ROLE ( 'design_supplier' ) ;
#81 = CC_DESIGN_PERSON_AND_ORGANIZATION_ASSIGNMENT ( #135, #133, ( #222 ) ) ;
#82 = VERTEX_POINT ( 'NONE', #238 ) ;
#83 = PERSON_AND_ORGANIZATION ( #84, #65 ) ;
#84 = PERSON ( 'NEURÈENÝ', 'NEURÈENÝ', 'NEURÈENÝ', ('NEURÈENÝ'), ('NEURÈENÝ'), ('NEURÈENÝ') ) ;
#85 = ORIENTED_EDGE ( 'NONE', *, *, #148, .F. ) ;
#86 = AXIS2_PLACEMENT_3D ( 'NONE', #2, #155, #236 ) ;
#87 = DIRECTION ( 'NONE',  ( 1.000000000000000000, 0.000000000000000000, 0.000000000000000000 ) ) ;
#88 = CARTESIAN_POINT ( 'NONE',  ( 0.000000000000000000, 0.000000000000000000, 250.0000000000000000 ) ) ;
#89 = ADVANCED_FACE ( 'NONE', ( #239, #198 ), #47, .T. ) ;
#90 = DIRECTION ( 'NONE',  ( 1.000000000000000000, 0.000000000000000000, 0.000000000000000000 ) ) ;
#91 = DIRECTION ( 'NONE',  ( 0.000000000000000000, 0.000000000000000000, 1.000000000000000000 ) ) ;
#92 = CARTESIAN_POINT ( 'NONE',  ( -6.000000000000000888, 0.000000000000000000, 5.000000000000000000 ) ) ;
#93 = EDGE_CURVE ( 'NONE', #158, #172, #97, .T. ) ;
#94 = DIRECTION ( 'NONE',  ( 0.000000000000000000, 0.000000000000000000, 1.000000000000000000 ) ) ;
#95 = LOCAL_TIME ( 12, 40, 9.000000000000000000, #37 ) ;
#96 = EDGE_LOOP ( 'NONE', ( #85, #120, #220, #180 ) ) ;
#97 = CIRCLE ( 'NONE', #175, 6.000000000000000888 ) ;
#98 = CC_DESIGN_DATE_AND_TIME_ASSIGNMENT ( #231, #251, ( #177 ) ) ;
#99 = CALENDAR_DATE ( 2023, 12, 2 ) ;
#100 = SECURITY_CLASSIFICATION_LEVEL ( 'unclassified' ) ;
#101 = CIRCLE ( 'NONE', #203, 3.000000000000000444 ) ;
#102 = APPLICATION_CONTEXT ( 'configuration controlled 3d designs of mechanical parts and assemblies' ) ;
#103 = DIRECTION ( 'NONE',  ( 1.000000000000000000, 0.000000000000000000, -0.000000000000000000 ) ) ;
#104 = ORIENTED_EDGE ( 'NONE', *, *, #226, .T. ) ;
#105 = CLOSED_SHELL ( 'NONE', ( #166, #45, #208, #89, #56, #49, #253 ) ) ;
#106 = CARTESIAN_POINT ( 'NONE',  ( 0.000000000000000000, 0.000000000000000000, 0.000000000000000000 ) ) ;
#107 = EDGE_CURVE ( 'NONE', #108, #57, #128, .T. ) ;
#108 = VERTEX_POINT ( 'NONE', #161 ) ;
#109 = APPLICATION_PROTOCOL_DEFINITION ( 'international standard', 'config_control_design', 1994, #102 ) ;
#110 = DIRECTION ( 'NONE',  ( 1.000000000000000000, 0.000000000000000000, 0.000000000000000000 ) ) ;
#111 = FACE_OUTER_BOUND ( 'NONE', #199, .T. ) ;
#112 = CC_DESIGN_DATE_AND_TIME_ASSIGNMENT ( #40, #228, ( #222 ) ) ;
#113 = DIRECTION ( 'NONE',  ( 1.000000000000000000, 0.000000000000000000, -0.000000000000000000 ) ) ;
#114 = ORIENTED_EDGE ( 'NONE', *, *, #93, .F. ) ;
#115 = APPROVAL_ROLE ( '' ) ;
#116 = PERSON_AND_ORGANIZATION ( #84, #65 ) ;
#117 = CALENDAR_DATE ( 2023, 12, 2 ) ;
#118 = EDGE_LOOP ( 'NONE', ( #29, #169 ) ) ;
#119 = DATE_AND_TIME ( #193, #125 ) ;
#120 = ORIENTED_EDGE ( 'NONE', *, *, #153, .T. ) ;
#121 = CARTESIAN_POINT ( 'NONE',  ( 0.000000000000000000, 0.000000000000000000, 250.0000000000000000 ) ) ;
#122 = CARTESIAN_POINT ( 'NONE',  ( 0.000000000000000000, 0.000000000000000000, 5.000000000000000000 ) ) ;
#123 = CIRCLE ( 'NONE', #249, 3.000000000000000444 ) ;
#124 = CARTESIAN_POINT ( 'NONE',  ( 0.000000000000000000, 0.000000000000000000, 5.000000000000000000 ) ) ;
#125 = LOCAL_TIME ( 12, 40, 9.000000000000000000, #38 ) ;
#126 = PLANE ( 'NONE',  #184 ) ;
#127 = LINE ( 'NONE', #210, #4 ) ;
#128 = CIRCLE ( 'NONE', #14, 6.000000000000000888 ) ;
#129 = PERSON_AND_ORGANIZATION ( #84, #65 ) ;
#130 = LOCAL_TIME ( 12, 40, 9.000000000000000000, #137 ) ;
#131 = CARTESIAN_POINT ( 'NONE',  ( 0.000000000000000000, 0.000000000000000000, 0.000000000000000000 ) ) ;
#132 = CARTESIAN_POINT ( 'NONE',  ( 3.000000000000000444, 3.673940397442060361E-16, 250.0000000000000000 ) ) ;
#133 = PERSON_AND_ORGANIZATION_ROLE ( 'creator' ) ;
#134 = CIRCLE ( 'NONE', #145, 6.000000000000000888 ) ;
#135 = PERSON_AND_ORGANIZATION ( #84, #65 ) ;
#136 = APPROVAL_DATE_TIME ( #119, #41 ) ;
#137 = COORDINATED_UNIVERSAL_TIME_OFFSET ( 1, 0, .AHEAD. ) ;
#138 = CARTESIAN_POINT ( 'NONE',  ( 3.000000000000000444, 3.673940397442060361E-16, 250.0000000000000000 ) ) ;
#139 = DIRECTION ( 'NONE',  ( 0.000000000000000000, 0.000000000000000000, 1.000000000000000000 ) ) ;
#140 = EDGE_CURVE ( 'NONE', #172, #158, #156, .T. ) ;
#141 = ORIENTED_EDGE ( 'NONE', *, *, #74, .F. ) ;
#142 = DESIGN_CONTEXT ( 'detailed design', #188, 'design' ) ;
#143 = ORIENTED_EDGE ( 'NONE', *, *, #140, .T. ) ;
#144 = AXIS2_PLACEMENT_3D ( 'NONE', #162, #12, #245 ) ;
#145 = AXIS2_PLACEMENT_3D ( 'NONE', #131, #187, #78 ) ;
#146 = DIRECTION ( 'NONE',  ( -0.000000000000000000, -0.000000000000000000, -1.000000000000000000 ) ) ;
#147 = AXIS2_PLACEMENT_3D ( 'NONE', #88, #46, #219 ) ;
#148 = EDGE_CURVE ( 'NONE', #216, #82, #190, .T. ) ;
#149 = PRODUCT_DEFINITION_FORMATION_WITH_SPECIFIED_SOURCE ( 'LIBOVOLNÝ', '', #62, .NOT_KNOWN. ) ;
#150 = FACE_OUTER_BOUND ( 'NONE', #250, .T. ) ;
#151 = DIRECTION ( 'NONE',  ( -0.000000000000000000, -0.000000000000000000, -1.000000000000000000 ) ) ;
#152 = LOCAL_TIME ( 12, 40, 9.000000000000000000, #19 ) ;
#153 = EDGE_CURVE ( 'NONE', #216, #27, #64, .T. ) ;
#154 = CALENDAR_DATE ( 2023, 12, 2 ) ;
#155 = DIRECTION ( 'NONE',  ( 0.000000000000000000, 0.000000000000000000, 1.000000000000000000 ) ) ;
#156 = CIRCLE ( 'NONE', #52, 6.000000000000000888 ) ;
#157 = DIRECTION ( 'NONE',  ( -0.000000000000000000, -0.000000000000000000, -1.000000000000000000 ) ) ;
#158 = VERTEX_POINT ( 'NONE', #92 ) ;
#159 = CARTESIAN_POINT ( 'NONE',  ( 0.000000000000000000, 0.000000000000000000, 0.000000000000000000 ) ) ;
#160 = AXIS2_PLACEMENT_3D ( 'NONE', #121, #5, #48 ) ;
#161 = CARTESIAN_POINT ( 'NONE',  ( 6.000000000000000888, 7.347880794884120722E-16, 0.000000000000000000 ) ) ;
#162 = CARTESIAN_POINT ( 'NONE',  ( 0.000000000000000000, 0.000000000000000000, 5.000000000000000000 ) ) ;
#163 = DIRECTION ( 'NONE',  ( -0.000000000000000000, -0.000000000000000000, -1.000000000000000000 ) ) ;
#164 = CC_DESIGN_SECURITY_CLASSIFICATION ( #177, ( #149 ) ) ;
#165 =( LENGTH_UNIT ( ) NAMED_UNIT ( * ) SI_UNIT ( .MILLI., .METRE. ) );
#166 = ADVANCED_FACE ( 'NONE', ( #11 ), #36, .T. ) ;
#167 = DATE_AND_TIME ( #117, #130 ) ;
#168 = PERSON_AND_ORGANIZATION ( #84, #65 ) ;
#169 = ORIENTED_EDGE ( 'NONE', *, *, #16, .F. ) ;
#170 = ORIENTED_EDGE ( 'NONE', *, *, #74, .T. ) ;
#171 = PERSON_AND_ORGANIZATION ( #84, #65 ) ;
#172 = VERTEX_POINT ( 'NONE', #72 ) ;
#173 = DIRECTION ( 'NONE',  ( 0.000000000000000000, 0.000000000000000000, 1.000000000000000000 ) ) ;
#174 = ORIENTED_EDGE ( 'NONE', *, *, #148, .T. ) ;
#175 = AXIS2_PLACEMENT_3D ( 'NONE', #122, #204, #90 ) ;
#176 = DIRECTION ( 'NONE',  ( 0.000000000000000000, 0.000000000000000000, 1.000000000000000000 ) ) ;
#177 = SECURITY_CLASSIFICATION ( '', '', #100 ) ;
#178 = ORIENTED_EDGE ( 'NONE', *, *, #192, .T. ) ;
#179 = EDGE_CURVE ( 'NONE', #158, #57, #209, .T. ) ;
#180 = ORIENTED_EDGE ( 'NONE', *, *, #183, .F. ) ;
#181 = CARTESIAN_POINT ( 'NONE',  ( -3.000000000000000444, 0.000000000000000000, 250.0000000000000000 ) ) ;
#182 = PERSON_AND_ORGANIZATION ( #84, #65 ) ;
#183 = EDGE_CURVE ( 'NONE', #82, #196, #31, .T. ) ;
#184 = AXIS2_PLACEMENT_3D ( 'NONE', #106, #176, #103 ) ;
#185 = DIRECTION ( 'NONE',  ( -1.000000000000000000, 0.000000000000000000, 0.000000000000000000 ) ) ;
#186 = AXIS2_PLACEMENT_3D ( 'NONE', #33, #10, #110 ) ;
#187 = DIRECTION ( 'NONE',  ( 0.000000000000000000, 0.000000000000000000, 1.000000000000000000 ) ) ;
#188 = APPLICATION_CONTEXT ( 'configuration controlled 3d designs of mechanical parts and assemblies' ) ;
#189 = DATE_AND_TIME ( #154, #95 ) ;
#190 = CIRCLE ( 'NONE', #86, 3.000000000000000444 ) ;
#191 = APPROVAL_STATUS ( 'not_yet_approved' ) ;
#192 = EDGE_CURVE ( 'NONE', #57, #108, #134, .T. ) ;
#193 = CALENDAR_DATE ( 2023, 12, 2 ) ;
#194 = ORIENTED_EDGE ( 'NONE', *, *, #201, .F. ) ;
#195 = CIRCLE ( 'NONE', #147, 3.000000000000000444 ) ;
#196 = VERTEX_POINT ( 'NONE', #50 ) ;
#197 = CARTESIAN_POINT ( 'NONE',  ( 3.000000000000000444, 3.673940397442060361E-16, 5.000000000000000000 ) ) ;
#198 = FACE_OUTER_BOUND ( 'NONE', #59, .T. ) ;
#199 = EDGE_LOOP ( 'NONE', ( #194, #114, #229, #178 ) ) ;
#200 = DIRECTION ( 'NONE',  ( 1.000000000000000000, 0.000000000000000000, -0.000000000000000000 ) ) ;
#201 = EDGE_CURVE ( 'NONE', #172, #108, #127, .T. ) ;
#202 = ADVANCED_BREP_SHAPE_REPRESENTATION ( '4725', ( #1, #186 ), #242 ) ;
#203 = AXIS2_PLACEMENT_3D ( 'NONE', #225, #205, #73 ) ;
#204 = DIRECTION ( 'NONE',  ( 0.000000000000000000, 0.000000000000000000, 1.000000000000000000 ) ) ;
#205 = DIRECTION ( 'NONE',  ( 0.000000000000000000, 0.000000000000000000, 1.000000000000000000 ) ) ;
#206 = APPROVAL_STATUS ( 'not_yet_approved' ) ;
#207 = APPROVAL_PERSON_ORGANIZATION ( #182, #41, #32 ) ;
#208 = ADVANCED_FACE ( 'NONE', ( #111 ), #243, .T. ) ;
#209 = LINE ( 'NONE', #248, #237 ) ;
#210 = CARTESIAN_POINT ( 'NONE',  ( 6.000000000000000888, 7.347880794884120722E-16, 5.000000000000000000 ) ) ;
#211 = APPROVAL_DATE_TIME ( #189, #58 ) ;
#212 = EDGE_LOOP ( 'NONE', ( #63, #141, #18, #104 ) ) ;
#213 = PERSON_AND_ORGANIZATION_ROLE ( 'creator' ) ;
#214 = CC_DESIGN_APPROVAL ( #58, ( #177 ) ) ;
#215 = ORIENTED_EDGE ( 'NONE', *, *, #201, .T. ) ;
#216 = VERTEX_POINT ( 'NONE', #132 ) ;
#217 = DIRECTION ( 'NONE',  ( -0.000000000000000000, -0.000000000000000000, -1.000000000000000000 ) ) ;
#218 = CARTESIAN_POINT ( 'NONE',  ( -6.000000000000000888, 0.000000000000000000, 0.000000000000000000 ) ) ;
#219 = DIRECTION ( 'NONE',  ( 1.000000000000000000, 0.000000000000000000, 0.000000000000000000 ) ) ;
#220 = ORIENTED_EDGE ( 'NONE', *, *, #16, .T. ) ;
#221 = PERSON_AND_ORGANIZATION_ROLE ( 'design_owner' ) ;
#222 = PRODUCT_DEFINITION ( 'NEZNÁMÝ', '', #149, #142 ) ;
#223 =( NAMED_UNIT ( * ) SI_UNIT ( $, .STERADIAN. ) SOLID_ANGLE_UNIT ( ) );
#224 = PLANE ( 'NONE',  #70 ) ;
#225 = CARTESIAN_POINT ( 'NONE',  ( 0.000000000000000000, 0.000000000000000000, 5.000000000000000000 ) ) ;
#226 = EDGE_CURVE ( 'NONE', #196, #27, #101, .T. ) ;
#227 = PERSON_AND_ORGANIZATION ( #84, #65 ) ;
#228 = DATE_TIME_ROLE ( 'creation_date' ) ;
#229 = ORIENTED_EDGE ( 'NONE', *, *, #179, .T. ) ;
#230 = EDGE_LOOP ( 'NONE', ( #43, #20 ) ) ;
#231 = DATE_AND_TIME ( #22, #17 ) ;
#232 = CC_DESIGN_PERSON_AND_ORGANIZATION_ASSIGNMENT ( #168, #213, ( #149 ) ) ;
#233 = ORIENTED_EDGE ( 'NONE', *, *, #140, .F. ) ;
#234 = PRODUCT_DEFINITION_SHAPE ( 'NONE', 'NONE',  #222 ) ;
#235 = AXIS2_PLACEMENT_3D ( 'NONE', #44, #157, #66 ) ;
#236 = DIRECTION ( 'NONE',  ( 1.000000000000000000, 0.000000000000000000, 0.000000000000000000 ) ) ;
#237 = VECTOR ( 'NONE', #163, 1000.000000000000000 ) ;
#238 = CARTESIAN_POINT ( 'NONE',  ( -3.000000000000000444, 0.000000000000000000, 250.0000000000000000 ) ) ;
#239 = FACE_BOUND ( 'NONE', #118, .T. ) ;
#240 = DIRECTION ( 'NONE',  ( 1.000000000000000000, 0.000000000000000000, 0.000000000000000000 ) ) ;
#241 = DIRECTION ( 'NONE',  ( 0.000000000000000000, 0.000000000000000000, 1.000000000000000000 ) ) ;
#242 =( GEOMETRIC_REPRESENTATION_CONTEXT ( 3 ) GLOBAL_UNCERTAINTY_ASSIGNED_CONTEXT ( ( #75 ) ) GLOBAL_UNIT_ASSIGNED_CONTEXT ( ( #165, #13, #223 ) ) REPRESENTATION_CONTEXT ( 'NONE', 'WORKASPACE' ) );
#243 = CYLINDRICAL_SURFACE ( 'NONE', #144, 6.000000000000000888 ) ;
#244 = VECTOR ( 'NONE', #217, 1000.000000000000000 ) ;
#245 = DIRECTION ( 'NONE',  ( -1.000000000000000000, 0.000000000000000000, 0.000000000000000000 ) ) ;
#246 = AXIS2_PLACEMENT_3D ( 'NONE', #76, #146, #185 ) ;
#247 = CC_DESIGN_PERSON_AND_ORGANIZATION_ASSIGNMENT ( #83, #80, ( #149 ) ) ;
#248 = CARTESIAN_POINT ( 'NONE',  ( -6.000000000000000888, 0.000000000000000000, 5.000000000000000000 ) ) ;
#249 = AXIS2_PLACEMENT_3D ( 'NONE', #25, #139, #87 ) ;
#250 = EDGE_LOOP ( 'NONE', ( #170, #174 ) ) ;
#251 = DATE_TIME_ROLE ( 'classification_date' ) ;
#252 = APPROVAL_ROLE ( '' ) ;
#253 = ADVANCED_FACE ( 'NONE', ( #150 ), #224, .T. ) ;
#254 = VECTOR ( 'NONE', #9, 1000.000000000000000 ) ;
#255 = EDGE_LOOP ( 'NONE', ( #233, #215, #69, #42 ) ) ;
ENDSEC;
END-ISO-10303-21;
