ISO-10303-21;
HEADER;
FILE_DESCRIPTION (( 'STEP AP203' ),
    '1' );
FILE_NAME ('984e.STEP',
    '2022-07-07T12:35:47',
    ( '' ),
    ( '' ),
    'SwSTEP 2.0',
    'SolidWorks 2019',
    '' );
FILE_SCHEMA (( 'CONFIG_CONTROL_DESIGN' ));
ENDSEC;

DATA;
#1 = DIRECTION ( 'NONE',  ( -0.000000000000000000, -0.000000000000000000, -1.000000000000000000 ) ) ;
#2 = AXIS2_PLACEMENT_3D ( 'NONE', #24, #141, #163 ) ;
#3 = ADVANCED_FACE ( 'NONE', ( #208 ), #247, .F. ) ;
#4 = CARTESIAN_POINT ( 'NONE',  ( 3.949999999999999734, 0.000000000000000000, 5.200000000000009948 ) ) ;
#5 = DIRECTION ( 'NONE',  ( 1.000000000000000000, 0.000000000000000000, 0.000000000000000000 ) ) ;
#6 = PERSON_AND_ORGANIZATION ( #108, #299 ) ;
#7 = DATE_AND_TIME ( #31, #241 ) ;
#8 = EDGE_LOOP ( 'NONE', ( #193, #16, #134, #222 ) ) ;
#9 = DATE_TIME_ROLE ( 'classification_date' ) ;
#10 =( GEOMETRIC_REPRESENTATION_CONTEXT ( 3 ) GLOBAL_UNCERTAINTY_ASSIGNED_CONTEXT ( ( #203 ) ) GLOBAL_UNIT_ASSIGNED_CONTEXT ( ( #268, #26, #119 ) ) REPRESENTATION_CONTEXT ( 'NONE', 'WORKASPACE' ) );
#11 = EDGE_CURVE ( 'NONE', #102, #240, #180, .T. ) ;
#12 = PERSON_AND_ORGANIZATION ( #108, #299 ) ;
#13 = SHAPE_DEFINITION_REPRESENTATION ( #123, #59 ) ;
#14 = ORIENTED_EDGE ( 'NONE', *, *, #11, .T. ) ;
#15 = CARTESIAN_POINT ( 'NONE',  ( 0.000000000000000000, 0.000000000000000000, 5.200000000000009948 ) ) ;
#16 = ORIENTED_EDGE ( 'NONE', *, *, #67, .F. ) ;
#17 = CARTESIAN_POINT ( 'NONE',  ( 6.000000000000000888, 7.347880794884120722E-16, 0.000000000000000000 ) ) ;
#18 = CARTESIAN_POINT ( 'NONE',  ( 0.000000000000000000, 0.000000000000000000, 5.000000000000000000 ) ) ;
#19 = AXIS2_PLACEMENT_3D ( 'NONE', #260, #1, #140 ) ;
#20 = APPROVAL_PERSON_ORGANIZATION ( #198, #212, #57 ) ;
#21 = CARTESIAN_POINT ( 'NONE',  ( 0.000000000000000000, 0.000000000000000000, 205.0000000000000284 ) ) ;
#22 = DIRECTION ( 'NONE',  ( 1.000000000000000000, 0.000000000000000000, 0.000000000000000000 ) ) ;
#23 = CARTESIAN_POINT ( 'NONE',  ( 0.000000000000000000, 0.000000000000000000, 205.0000000000000284 ) ) ;
#24 = CARTESIAN_POINT ( 'NONE',  ( -3.949999999999999734, 4.837354856632044071E-16, 5.200000000000009948 ) ) ;
#25 = DIRECTION ( 'NONE',  ( -0.000000000000000000, -0.000000000000000000, -1.000000000000000000 ) ) ;
#26 =( NAMED_UNIT ( * ) PLANE_ANGLE_UNIT ( ) SI_UNIT ( $, .RADIAN. ) );
#27 = AXIS2_PLACEMENT_3D ( 'NONE', #45, #130, #106 ) ;
#28 = PERSON_AND_ORGANIZATION_ROLE ( 'design_supplier' ) ;
#29 = CALENDAR_DATE ( 2022, 7, 7 ) ;
#30 = PRODUCT_RELATED_PRODUCT_CATEGORY ( 'detail', '', ( #171 ) ) ;
#31 = CALENDAR_DATE ( 2022, 7, 7 ) ;
#32 = EDGE_CURVE ( 'NONE', #227, #148, #178, .T. ) ;
#33 = PERSON_AND_ORGANIZATION ( #108, #299 ) ;
#34 = ADVANCED_FACE ( 'NONE', ( #41, #39 ), #207, .T. ) ;
#35 = AXIS2_PLACEMENT_3D ( 'NONE', #236, #186, #161 ) ;
#36 = MANIFOLD_SOLID_BREP ( 'Zaoblit1', #159 ) ;
#37 = AXIS2_PLACEMENT_3D ( 'NONE', #4, #70, #286 ) ;
#38 = APPROVAL_DATE_TIME ( #151, #212 ) ;
#39 = FACE_OUTER_BOUND ( 'NONE', #154, .T. ) ;
#40 = ORIENTED_EDGE ( 'NONE', *, *, #264, .F. ) ;
#41 = FACE_BOUND ( 'NONE', #53, .T. ) ;
#42 = ORIENTED_EDGE ( 'NONE', *, *, #252, .T. ) ;
#43 = ADVANCED_FACE ( 'NONE', ( #68 ), #80, .T. ) ;
#44 = ADVANCED_FACE ( 'NONE', ( #107 ), #279, .T. ) ;
#45 = CARTESIAN_POINT ( 'NONE',  ( 0.000000000000000000, 0.000000000000000000, 0.000000000000000000 ) ) ;
#46 = APPROVAL_PERSON_ORGANIZATION ( #12, #258, #293 ) ;
#47 = CARTESIAN_POINT ( 'NONE',  ( 0.000000000000000000, 0.000000000000000000, 0.000000000000000000 ) ) ;
#48 = DIRECTION ( 'NONE',  ( 0.000000000000000000, 0.000000000000000000, 1.000000000000000000 ) ) ;
#49 = DIRECTION ( 'NONE',  ( -0.000000000000000000, -0.000000000000000000, -1.000000000000000000 ) ) ;
#50 = LINE ( 'NONE', #112, #98 ) ;
#51 = DIRECTION ( 'NONE',  ( -0.000000000000000000, -0.000000000000000000, -1.000000000000000000 ) ) ;
#52 = COORDINATED_UNIVERSAL_TIME_OFFSET ( 1, 0, .AHEAD. ) ;
#53 = EDGE_LOOP ( 'NONE', ( #206, #79 ) ) ;
#54 = CC_DESIGN_PERSON_AND_ORGANIZATION_ASSIGNMENT ( #143, #242, ( #171 ) ) ;
#55 = AXIS2_PLACEMENT_3D ( 'NONE', #302, #109, #181 ) ;
#56 = DIRECTION ( 'NONE',  ( 1.000000000000000000, 0.000000000000000000, 0.000000000000000000 ) ) ;
#57 = APPROVAL_ROLE ( '' ) ;
#58 = EDGE_LOOP ( 'NONE', ( #96, #40, #14, #275 ) ) ;
#59 = ADVANCED_BREP_SHAPE_REPRESENTATION ( '984e', ( #36, #237 ), #10 ) ;
#60 = CC_DESIGN_PERSON_AND_ORGANIZATION_ASSIGNMENT ( #77, #149, ( #277 ) ) ;
#61 = PERSON_AND_ORGANIZATION ( #108, #299 ) ;
#62 = CC_DESIGN_APPROVAL ( #212, ( #282 ) ) ;
#63 = ORIENTED_EDGE ( 'NONE', *, *, #91, .T. ) ;
#64 = ADVANCED_FACE ( 'NONE', ( #301 ), #199, .F. ) ;
#65 = VERTEX_POINT ( 'NONE', #17 ) ;
#66 = CARTESIAN_POINT ( 'NONE',  ( 0.000000000000000000, 0.000000000000000000, 5.000000000000000000 ) ) ;
#67 = EDGE_CURVE ( 'NONE', #251, #240, #124, .T. ) ;
#68 = FACE_OUTER_BOUND ( 'NONE', #254, .T. ) ;
#69 = CC_DESIGN_DATE_AND_TIME_ASSIGNMENT ( #122, #9, ( #282 ) ) ;
#70 = DIRECTION ( 'NONE',  ( 0.000000000000000000, -1.000000000000000000, 0.000000000000000000 ) ) ;
#71 = CARTESIAN_POINT ( 'NONE',  ( -6.000000000000000888, 0.000000000000000000, 5.000000000000000000 ) ) ;
#72 = DIRECTION ( 'NONE',  ( 1.000000000000000000, 0.000000000000000000, 0.000000000000000000 ) ) ;
#73 = DIRECTION ( 'NONE',  ( -0.000000000000000000, -0.000000000000000000, -1.000000000000000000 ) ) ;
#74 = CARTESIAN_POINT ( 'NONE',  ( 3.750000000000000000, 4.592425496802573972E-16, 205.0000000000000284 ) ) ;
#75 = DATE_AND_TIME ( #202, #135 ) ;
#76 = APPROVAL_STATUS ( 'not_yet_approved' ) ;
#77 = PERSON_AND_ORGANIZATION ( #108, #299 ) ;
#78 = DIRECTION ( 'NONE',  ( 1.000000000000000000, 0.000000000000000000, -0.000000000000000000 ) ) ;
#79 = ORIENTED_EDGE ( 'NONE', *, *, #93, .T. ) ;
#80 = CYLINDRICAL_SURFACE ( 'NONE', #187, 6.000000000000000888 ) ;
#81 = ADVANCED_FACE ( 'NONE', ( #210 ), #165, .F. ) ;
#82 = ORIENTED_EDGE ( 'NONE', *, *, #117, .F. ) ;
#83 = VECTOR ( 'NONE', #300, 1000.000000000000000 ) ;
#84 = CARTESIAN_POINT ( 'NONE',  ( -3.750000000000000000, 0.000000000000000000, 205.0000000000000284 ) ) ;
#85 = DIRECTION ( 'NONE',  ( 1.000000000000000000, 0.000000000000000000, 0.000000000000000000 ) ) ;
#86 = DIRECTION ( 'NONE',  ( 0.000000000000000000, 0.000000000000000000, 1.000000000000000000 ) ) ;
#87 = CIRCLE ( 'NONE', #250, 3.750000000000000000 ) ;
#88 = CC_DESIGN_APPROVAL ( #258, ( #307 ) ) ;
#89 = DIRECTION ( 'NONE',  ( 0.000000000000000000, 0.000000000000000000, 1.000000000000000000 ) ) ;
#90 = CYLINDRICAL_SURFACE ( 'NONE', #111, 3.750000000000000000 ) ;
#91 = EDGE_CURVE ( 'NONE', #148, #227, #287, .T. ) ;
#92 = CARTESIAN_POINT ( 'NONE',  ( 6.000000000000000888, 7.347880794884120722E-16, 5.000000000000000000 ) ) ;
#93 = EDGE_CURVE ( 'NONE', #273, #249, #150, .T. ) ;
#94 = SECURITY_CLASSIFICATION_LEVEL ( 'unclassified' ) ;
#95 = DATE_TIME_ROLE ( 'creation_date' ) ;
#96 = ORIENTED_EDGE ( 'NONE', *, *, #103, .F. ) ;
#97 = APPLICATION_PROTOCOL_DEFINITION ( 'international standard', 'config_control_design', 1994, #259 ) ;
#98 = VECTOR ( 'NONE', #118, 1000.000000000000000 ) ;
#99 = ORIENTED_EDGE ( 'NONE', *, *, #176, .F. ) ;
#100 = APPROVAL_PERSON_ORGANIZATION ( #33, #248, #125 ) ;
#101 = CALENDAR_DATE ( 2022, 7, 7 ) ;
#102 = VERTEX_POINT ( 'NONE', #239 ) ;
#103 = EDGE_CURVE ( 'NONE', #289, #251, #216, .T. ) ;
#104 = ORIENTED_EDGE ( 'NONE', *, *, #136, .F. ) ;
#105 = CC_DESIGN_APPROVAL ( #248, ( #277 ) ) ;
#106 = DIRECTION ( 'NONE',  ( 1.000000000000000000, 0.000000000000000000, -0.000000000000000000 ) ) ;
#107 = FACE_OUTER_BOUND ( 'NONE', #297, .T. ) ;
#108 = PERSON ( 'NEURÈENÝ', 'NEURÈENÝ', 'NEURÈENÝ', ('NEURÈENÝ'), ('NEURÈENÝ'), ('NEURÈENÝ') ) ;
#109 = DIRECTION ( 'NONE',  ( 0.000000000000000000, 0.000000000000000000, 1.000000000000000000 ) ) ;
#110 = AXIS2_PLACEMENT_3D ( 'NONE', #15, #274, #133 ) ;
#111 = AXIS2_PLACEMENT_3D ( 'NONE', #234, #51, #158 ) ;
#112 = CARTESIAN_POINT ( 'NONE',  ( 6.000000000000000888, 7.347880794884120722E-16, 5.000000000000000000 ) ) ;
#113 = FACE_OUTER_BOUND ( 'NONE', #156, .T. ) ;
#114 = CARTESIAN_POINT ( 'NONE',  ( -6.000000000000000888, 0.000000000000000000, 0.000000000000000000 ) ) ;
#115 = AXIS2_PLACEMENT_3D ( 'NONE', #47, #48, #22 ) ;
#116 = CARTESIAN_POINT ( 'NONE',  ( 0.000000000000000000, 0.000000000000000000, 0.000000000000000000 ) ) ;
#117 = EDGE_CURVE ( 'NONE', #240, #251, #87, .T. ) ;
#118 = DIRECTION ( 'NONE',  ( -0.000000000000000000, -0.000000000000000000, -1.000000000000000000 ) ) ;
#119 =( NAMED_UNIT ( * ) SI_UNIT ( $, .STERADIAN. ) SOLID_ANGLE_UNIT ( ) );
#120 = CIRCLE ( 'NONE', #128, 3.750000000000000000 ) ;
#121 = APPROVAL_DATE_TIME ( #75, #258 ) ;
#122 = DATE_AND_TIME ( #29, #152 ) ;
#123 = PRODUCT_DEFINITION_SHAPE ( 'NONE', 'NONE',  #307 ) ;
#124 = CIRCLE ( 'NONE', #209, 3.750000000000000000 ) ;
#125 = APPROVAL_ROLE ( '' ) ;
#126 = CIRCLE ( 'NONE', #303, 3.750000000000000000 ) ;
#127 = ORIENTED_EDGE ( 'NONE', *, *, #252, .F. ) ;
#128 = AXIS2_PLACEMENT_3D ( 'NONE', #192, #290, #56 ) ;
#129 = DIRECTION ( 'NONE',  ( -0.000000000000000000, -0.000000000000000000, -1.000000000000000000 ) ) ;
#130 = DIRECTION ( 'NONE',  ( 0.000000000000000000, 0.000000000000000000, 1.000000000000000000 ) ) ;
#131 = VECTOR ( 'NONE', #167, 1000.000000000000000 ) ;
#132 = LOCAL_TIME ( 14, 35, 47.00000000000000000, #246 ) ;
#133 = DIRECTION ( 'NONE',  ( 1.000000000000000000, 0.000000000000000000, 0.000000000000000000 ) ) ;
#134 = ORIENTED_EDGE ( 'NONE', *, *, #145, .T. ) ;
#135 = LOCAL_TIME ( 14, 35, 47.00000000000000000, #52 ) ;
#136 = EDGE_CURVE ( 'NONE', #148, #65, #50, .T. ) ;
#137 = CARTESIAN_POINT ( 'NONE',  ( -3.750000000000000000, 0.000000000000000000, 5.200000000000009948 ) ) ;
#138 = CARTESIAN_POINT ( 'NONE',  ( 0.000000000000000000, 0.000000000000000000, 5.000000000000000000 ) ) ;
#139 = CARTESIAN_POINT ( 'NONE',  ( 0.000000000000000000, 0.000000000000000000, 5.000000000000000000 ) ) ;
#140 = DIRECTION ( 'NONE',  ( 1.000000000000000000, 0.000000000000000000, 0.000000000000000000 ) ) ;
#141 = DIRECTION ( 'NONE',  ( 1.224646799147353207E-16, 1.000000000000000000, -0.000000000000000000 ) ) ;
#142 = COORDINATED_UNIVERSAL_TIME_OFFSET ( 1, 0, .AHEAD. ) ;
#143 = PERSON_AND_ORGANIZATION ( #108, #299 ) ;
#144 = CC_DESIGN_SECURITY_CLASSIFICATION ( #282, ( #277 ) ) ;
#145 = EDGE_CURVE ( 'NONE', #251, #249, #228, .T. ) ;
#146 = ORIENTED_EDGE ( 'NONE', *, *, #176, .T. ) ;
#147 = CARTESIAN_POINT ( 'NONE',  ( 0.000000000000000000, 0.000000000000000000, 0.000000000000000000 ) ) ;
#148 = VERTEX_POINT ( 'NONE', #92 ) ;
#149 = PERSON_AND_ORGANIZATION_ROLE ( 'creator' ) ;
#150 = CIRCLE ( 'NONE', #19, 3.949999999999999734 ) ;
#151 = DATE_AND_TIME ( #225, #132 ) ;
#152 = LOCAL_TIME ( 14, 35, 47.00000000000000000, #243 ) ;
#153 = EDGE_LOOP ( 'NONE', ( #229, #127 ) ) ;
#154 = EDGE_LOOP ( 'NONE', ( #196, #63 ) ) ;
#155 = ORIENTED_EDGE ( 'NONE', *, *, #91, .F. ) ;
#156 = EDGE_LOOP ( 'NONE', ( #104, #304, #146, #226 ) ) ;
#157 = ORIENTED_EDGE ( 'NONE', *, *, #218, .F. ) ;
#158 = DIRECTION ( 'NONE',  ( -1.000000000000000000, 0.000000000000000000, 0.000000000000000000 ) ) ;
#159 = CLOSED_SHELL ( 'NONE', ( #64, #194, #43, #262, #34, #3, #201, #44, #81 ) ) ;
#160 = LOCAL_TIME ( 14, 35, 47.00000000000000000, #174 ) ;
#161 = DIRECTION ( 'NONE',  ( 1.000000000000000000, 0.000000000000000000, 0.000000000000000000 ) ) ;
#162 = CARTESIAN_POINT ( 'NONE',  ( -3.949999999999999734, 4.837354856632044071E-16, 5.000000000000005329 ) ) ;
#163 = DIRECTION ( 'NONE',  ( -1.000000000000000000, 1.224646799147353454E-16, 0.000000000000000000 ) ) ;
#164 = CC_DESIGN_DATE_AND_TIME_ASSIGNMENT ( #7, #95, ( #307 ) ) ;
#165 = TOROIDAL_SURFACE ( 'NONE', #35, 3.949999999999999734, 0.2000000000000000111 ) ;
#166 = CIRCLE ( 'NONE', #233, 6.000000000000000888 ) ;
#167 = DIRECTION ( 'NONE',  ( -0.000000000000000000, -0.000000000000000000, -1.000000000000000000 ) ) ;
#168 = MECHANICAL_CONTEXT ( 'NONE', #259, 'mechanical' ) ;
#169 = PERSON_AND_ORGANIZATION ( #108, #299 ) ;
#170 = ORIENTED_EDGE ( 'NONE', *, *, #103, .T. ) ;
#171 = PRODUCT ( '984e', '984e', '', ( #168 ) ) ;
#172 = CIRCLE ( 'NONE', #191, 3.949999999999999734 ) ;
#173 = APPROVAL_STATUS ( 'not_yet_approved' ) ;
#174 = COORDINATED_UNIVERSAL_TIME_OFFSET ( 1, 0, .AHEAD. ) ;
#175 = ORIENTED_EDGE ( 'NONE', *, *, #264, .T. ) ;
#176 = EDGE_CURVE ( 'NONE', #227, #265, #190, .T. ) ;
#177 = DIRECTION ( 'NONE',  ( 0.000000000000000000, 0.000000000000000000, 1.000000000000000000 ) ) ;
#178 = CIRCLE ( 'NONE', #205, 6.000000000000000888 ) ;
#179 = DIRECTION ( 'NONE',  ( -1.000000000000000000, 0.000000000000000000, 0.000000000000000000 ) ) ;
#180 = LINE ( 'NONE', #84, #83 ) ;
#181 = DIRECTION ( 'NONE',  ( 1.000000000000000000, 0.000000000000000000, -0.000000000000000000 ) ) ;
#182 = ORIENTED_EDGE ( 'NONE', *, *, #296, .T. ) ;
#183 = CARTESIAN_POINT ( 'NONE',  ( 0.000000000000000000, 0.000000000000000000, 5.000000000000000000 ) ) ;
#184 = FACE_OUTER_BOUND ( 'NONE', #291, .T. ) ;
#185 = CC_DESIGN_PERSON_AND_ORGANIZATION_ASSIGNMENT ( #169, #266, ( #282 ) ) ;
#186 = DIRECTION ( 'NONE',  ( 0.000000000000000000, 0.000000000000000000, 1.000000000000000000 ) ) ;
#187 = AXIS2_PLACEMENT_3D ( 'NONE', #66, #129, #179 ) ;
#188 = CARTESIAN_POINT ( 'NONE',  ( -6.000000000000000888, 0.000000000000000000, 5.000000000000000000 ) ) ;
#189 = CARTESIAN_POINT ( 'NONE',  ( 3.750000000000000000, 4.592425496802573972E-16, 205.0000000000000284 ) ) ;
#190 = LINE ( 'NONE', #71, #131 ) ;
#191 = AXIS2_PLACEMENT_3D ( 'NONE', #305, #73, #85 ) ;
#192 = CARTESIAN_POINT ( 'NONE',  ( 0.000000000000000000, 0.000000000000000000, 205.0000000000000284 ) ) ;
#193 = ORIENTED_EDGE ( 'NONE', *, *, #195, .F. ) ;
#194 = ADVANCED_FACE ( 'NONE', ( #184 ), #90, .T. ) ;
#195 = EDGE_CURVE ( 'NONE', #240, #273, #214, .T. ) ;
#196 = ORIENTED_EDGE ( 'NONE', *, *, #32, .T. ) ;
#197 = CC_DESIGN_PERSON_AND_ORGANIZATION_ASSIGNMENT ( #6, #28, ( #277 ) ) ;
#198 = PERSON_AND_ORGANIZATION ( #108, #299 ) ;
#199 = TOROIDAL_SURFACE ( 'NONE', #110, 3.949999999999999734, 0.2000000000000000111 ) ;
#200 = APPLICATION_CONTEXT ( 'configuration controlled 3d designs of mechanical parts and assemblies' ) ;
#201 = ADVANCED_FACE ( 'NONE', ( #281 ), #256, .T. ) ;
#202 = CALENDAR_DATE ( 2022, 7, 7 ) ;
#203 = UNCERTAINTY_MEASURE_WITH_UNIT (LENGTH_MEASURE( 1.000000000000000082E-05 ), #268, 'distance_accuracy_value', 'NONE');
#204 = EDGE_LOOP ( 'NONE', ( #82, #244, #157, #220 ) ) ;
#205 = AXIS2_PLACEMENT_3D ( 'NONE', #183, #278, #298 ) ;
#206 = ORIENTED_EDGE ( 'NONE', *, *, #218, .T. ) ;
#207 = PLANE ( 'NONE',  #261 ) ;
#208 = FACE_OUTER_BOUND ( 'NONE', #153, .T. ) ;
#209 = AXIS2_PLACEMENT_3D ( 'NONE', #276, #253, #231 ) ;
#210 = FACE_OUTER_BOUND ( 'NONE', #8, .T. ) ;
#211 = CARTESIAN_POINT ( 'NONE',  ( 0.000000000000000000, 0.000000000000000000, 5.200000000000009948 ) ) ;
#212 = APPROVAL ( #173, 'NEURÈENÝ' ) ;
#213 = CYLINDRICAL_SURFACE ( 'NONE', #219, 6.000000000000000888 ) ;
#214 = CIRCLE ( 'NONE', #2, 0.1999999999999996503 ) ;
#215 = DIRECTION ( 'NONE',  ( 1.000000000000000000, 0.000000000000000000, 0.000000000000000000 ) ) ;
#216 = LINE ( 'NONE', #74, #232 ) ;
#217 = PERSON_AND_ORGANIZATION_ROLE ( 'creator' ) ;
#218 = EDGE_CURVE ( 'NONE', #249, #273, #172, .T. ) ;
#219 = AXIS2_PLACEMENT_3D ( 'NONE', #138, #235, #306 ) ;
#220 = ORIENTED_EDGE ( 'NONE', *, *, #145, .F. ) ;
#221 = APPROVAL_STATUS ( 'not_yet_approved' ) ;
#222 = ORIENTED_EDGE ( 'NONE', *, *, #93, .F. ) ;
#223 = CIRCLE ( 'NONE', #115, 6.000000000000000888 ) ;
#224 = DIRECTION ( 'NONE',  ( 1.000000000000000000, 0.000000000000000000, 0.000000000000000000 ) ) ;
#225 = CALENDAR_DATE ( 2022, 7, 7 ) ;
#226 = ORIENTED_EDGE ( 'NONE', *, *, #285, .T. ) ;
#227 = VERTEX_POINT ( 'NONE', #188 ) ;
#228 = CIRCLE ( 'NONE', #37, 0.1999999999999996503 ) ;
#229 = ORIENTED_EDGE ( 'NONE', *, *, #285, .F. ) ;
#230 = DIRECTION ( 'NONE',  ( 0.000000000000000000, 0.000000000000000000, 1.000000000000000000 ) ) ;
#231 = DIRECTION ( 'NONE',  ( 1.000000000000000000, 0.000000000000000000, 0.000000000000000000 ) ) ;
#232 = VECTOR ( 'NONE', #25, 1000.000000000000000 ) ;
#233 = AXIS2_PLACEMENT_3D ( 'NONE', #116, #257, #215 ) ;
#234 = CARTESIAN_POINT ( 'NONE',  ( 0.000000000000000000, 0.000000000000000000, 205.0000000000000284 ) ) ;
#235 = DIRECTION ( 'NONE',  ( -0.000000000000000000, -0.000000000000000000, -1.000000000000000000 ) ) ;
#236 = CARTESIAN_POINT ( 'NONE',  ( 0.000000000000000000, 0.000000000000000000, 5.200000000000009948 ) ) ;
#237 = AXIS2_PLACEMENT_3D ( 'NONE', #147, #177, #224 ) ;
#238 = DESIGN_CONTEXT ( 'detailed design', #200, 'design' ) ;
#239 = CARTESIAN_POINT ( 'NONE',  ( -3.750000000000000000, 0.000000000000000000, 205.0000000000000284 ) ) ;
#240 = VERTEX_POINT ( 'NONE', #137 ) ;
#241 = LOCAL_TIME ( 14, 35, 47.00000000000000000, #142 ) ;
#242 = PERSON_AND_ORGANIZATION_ROLE ( 'design_owner' ) ;
#243 = COORDINATED_UNIVERSAL_TIME_OFFSET ( 1, 0, .AHEAD. ) ;
#244 = ORIENTED_EDGE ( 'NONE', *, *, #195, .T. ) ;
#245 = AXIS2_PLACEMENT_3D ( 'NONE', #139, #263, #5 ) ;
#246 = COORDINATED_UNIVERSAL_TIME_OFFSET ( 1, 0, .AHEAD. ) ;
#247 = PLANE ( 'NONE',  #27 ) ;
#248 = APPROVAL ( #76, 'NEURÈENÝ' ) ;
#249 = VERTEX_POINT ( 'NONE', #283 ) ;
#250 = AXIS2_PLACEMENT_3D ( 'NONE', #211, #89, #280 ) ;
#251 = VERTEX_POINT ( 'NONE', #255 ) ;
#252 = EDGE_CURVE ( 'NONE', #65, #265, #223, .T. ) ;
#253 = DIRECTION ( 'NONE',  ( 0.000000000000000000, 0.000000000000000000, 1.000000000000000000 ) ) ;
#254 = EDGE_LOOP ( 'NONE', ( #155, #267, #42, #99 ) ) ;
#255 = CARTESIAN_POINT ( 'NONE',  ( 3.750000000000000000, 4.592425496802573972E-16, 5.200000000000009948 ) ) ;
#256 = CYLINDRICAL_SURFACE ( 'NONE', #288, 3.750000000000000000 ) ;
#257 = DIRECTION ( 'NONE',  ( 0.000000000000000000, 0.000000000000000000, 1.000000000000000000 ) ) ;
#258 = APPROVAL ( #221, 'NEURÈENÝ' ) ;
#259 = APPLICATION_CONTEXT ( 'configuration controlled 3d designs of mechanical parts and assemblies' ) ;
#260 = CARTESIAN_POINT ( 'NONE',  ( 0.000000000000000000, 0.000000000000000000, 5.000000000000000000 ) ) ;
#261 = AXIS2_PLACEMENT_3D ( 'NONE', #18, #230, #78 ) ;
#262 = ADVANCED_FACE ( 'NONE', ( #113 ), #213, .T. ) ;
#263 = DIRECTION ( 'NONE',  ( 0.000000000000000000, 0.000000000000000000, 1.000000000000000000 ) ) ;
#264 = EDGE_CURVE ( 'NONE', #102, #289, #126, .T. ) ;
#265 = VERTEX_POINT ( 'NONE', #114 ) ;
#266 = PERSON_AND_ORGANIZATION_ROLE ( 'classification_officer' ) ;
#267 = ORIENTED_EDGE ( 'NONE', *, *, #136, .T. ) ;
#268 =( LENGTH_UNIT ( ) NAMED_UNIT ( * ) SI_UNIT ( .MILLI., .METRE. ) );
#269 = ORIENTED_EDGE ( 'NONE', *, *, #296, .F. ) ;
#270 = APPROVAL_DATE_TIME ( #295, #248 ) ;
#271 = ORIENTED_EDGE ( 'NONE', *, *, #11, .F. ) ;
#272 = APPLICATION_PROTOCOL_DEFINITION ( 'international standard', 'config_control_design', 1994, #200 ) ;
#273 = VERTEX_POINT ( 'NONE', #162 ) ;
#274 = DIRECTION ( 'NONE',  ( 0.000000000000000000, 0.000000000000000000, 1.000000000000000000 ) ) ;
#275 = ORIENTED_EDGE ( 'NONE', *, *, #117, .T. ) ;
#276 = CARTESIAN_POINT ( 'NONE',  ( 0.000000000000000000, 0.000000000000000000, 5.200000000000009948 ) ) ;
#277 = PRODUCT_DEFINITION_FORMATION_WITH_SPECIFIED_SOURCE ( 'LIBOVOLNÝ', '', #171, .NOT_KNOWN. ) ;
#278 = DIRECTION ( 'NONE',  ( 0.000000000000000000, 0.000000000000000000, 1.000000000000000000 ) ) ;
#279 = PLANE ( 'NONE',  #55 ) ;
#280 = DIRECTION ( 'NONE',  ( 1.000000000000000000, 0.000000000000000000, 0.000000000000000000 ) ) ;
#281 = FACE_OUTER_BOUND ( 'NONE', #58, .T. ) ;
#282 = SECURITY_CLASSIFICATION ( '', '', #94 ) ;
#283 = CARTESIAN_POINT ( 'NONE',  ( 3.949999999999999734, 0.000000000000000000, 5.000000000000005329 ) ) ;
#284 = DIRECTION ( 'NONE',  ( -1.000000000000000000, 0.000000000000000000, 0.000000000000000000 ) ) ;
#285 = EDGE_CURVE ( 'NONE', #265, #65, #166, .T. ) ;
#286 = DIRECTION ( 'NONE',  ( 0.000000000000000000, 0.000000000000000000, -1.000000000000000000 ) ) ;
#287 = CIRCLE ( 'NONE', #245, 6.000000000000000888 ) ;
#288 = AXIS2_PLACEMENT_3D ( 'NONE', #21, #49, #284 ) ;
#289 = VERTEX_POINT ( 'NONE', #189 ) ;
#290 = DIRECTION ( 'NONE',  ( 0.000000000000000000, 0.000000000000000000, 1.000000000000000000 ) ) ;
#291 = EDGE_LOOP ( 'NONE', ( #269, #170, #294, #271 ) ) ;
#292 = CC_DESIGN_PERSON_AND_ORGANIZATION_ASSIGNMENT ( #61, #217, ( #307 ) ) ;
#293 = APPROVAL_ROLE ( '' ) ;
#294 = ORIENTED_EDGE ( 'NONE', *, *, #67, .T. ) ;
#295 = DATE_AND_TIME ( #101, #160 ) ;
#296 = EDGE_CURVE ( 'NONE', #289, #102, #120, .T. ) ;
#297 = EDGE_LOOP ( 'NONE', ( #175, #182 ) ) ;
#298 = DIRECTION ( 'NONE',  ( 1.000000000000000000, 0.000000000000000000, 0.000000000000000000 ) ) ;
#299 = ORGANIZATION ( 'NEURÈENÝ', 'NEURÈENÝ', '' ) ;
#300 = DIRECTION ( 'NONE',  ( -0.000000000000000000, -0.000000000000000000, -1.000000000000000000 ) ) ;
#301 = FACE_OUTER_BOUND ( 'NONE', #204, .T. ) ;
#302 = CARTESIAN_POINT ( 'NONE',  ( 0.000000000000000000, 0.000000000000000000, 205.0000000000000284 ) ) ;
#303 = AXIS2_PLACEMENT_3D ( 'NONE', #23, #86, #72 ) ;
#304 = ORIENTED_EDGE ( 'NONE', *, *, #32, .F. ) ;
#305 = CARTESIAN_POINT ( 'NONE',  ( 0.000000000000000000, 0.000000000000000000, 5.000000000000000000 ) ) ;
#306 = DIRECTION ( 'NONE',  ( -1.000000000000000000, 0.000000000000000000, 0.000000000000000000 ) ) ;
#307 = PRODUCT_DEFINITION ( 'NEZNÁMÝ', '', #277, #238 ) ;
ENDSEC;
END-ISO-10303-21;
