ISO-10303-21;
HEADER;
FILE_DESCRIPTION (( 'STEP AP203' ),
    '1' );
FILE_NAME ('96d5.STEP',
    '2022-06-30T20:25:39',
    ( '' ),
    ( '' ),
    'SwSTEP 2.0',
    'SolidWorks 2019',
    '' );
FILE_SCHEMA (( 'CONFIG_CONTROL_DESIGN' ));
ENDSEC;

DATA;
#1 = APPROVAL_DATE_TIME ( #115, #215 ) ;
#2 = AXIS2_PLACEMENT_3D ( 'NONE', #57, #68, #70 ) ;
#3 = MECHANICAL_CONTEXT ( 'NONE', #178, 'mechanical' ) ;
#4 = DATE_AND_TIME ( #138, #94 ) ;
#5 = ADVANCED_FACE ( 'NONE', ( #145 ), #63, .T. ) ;
#6 = LOCAL_TIME ( 22, 25, 39.00000000000000000, #155 ) ;
#7 = DIRECTION ( 'NONE',  ( 1.000000000000000000, 0.000000000000000000, 0.000000000000000000 ) ) ;
#8 = ORIENTED_EDGE ( 'NONE', *, *, #206, .F. ) ;
#9 = UNCERTAINTY_MEASURE_WITH_UNIT (LENGTH_MEASURE( 1.000000000000000082E-05 ), #54, 'distance_accuracy_value', 'NONE');
#10 = CARTESIAN_POINT ( 'NONE',  ( 0.000000000000000000, 0.000000000000000000, 2.000000000000000000 ) ) ;
#11 = ORIENTED_EDGE ( 'NONE', *, *, #211, .T. ) ;
#12 = AXIS2_PLACEMENT_3D ( 'NONE', #10, #48, #202 ) ;
#13 = LINE ( 'NONE', #87, #245 ) ;
#14 = CARTESIAN_POINT ( 'NONE',  ( 0.000000000000000000, 0.000000000000000000, 0.000000000000000000 ) ) ;
#15 = CARTESIAN_POINT ( 'NONE',  ( -2.000000000000000000, 0.000000000000000000, 2.000000000000000000 ) ) ;
#16 = PRODUCT_RELATED_PRODUCT_CATEGORY ( 'detail', '', ( #123 ) ) ;
#17 = DIRECTION ( 'NONE',  ( 0.000000000000000000, 0.000000000000000000, 1.000000000000000000 ) ) ;
#18 = FACE_OUTER_BOUND ( 'NONE', #144, .T. ) ;
#19 = ADVANCED_FACE ( 'NONE', ( #203 ), #244, .F. ) ;
#20 =( GEOMETRIC_REPRESENTATION_CONTEXT ( 3 ) GLOBAL_UNCERTAINTY_ASSIGNED_CONTEXT ( ( #9 ) ) GLOBAL_UNIT_ASSIGNED_CONTEXT ( ( #54, #229, #73 ) ) REPRESENTATION_CONTEXT ( 'NONE', 'WORKASPACE' ) );
#21 = CALENDAR_DATE ( 2022, 30, 6 ) ;
#22 = ORIENTED_EDGE ( 'NONE', *, *, #242, .F. ) ;
#23 = COORDINATED_UNIVERSAL_TIME_OFFSET ( 1, 0, .AHEAD. ) ;
#24 = PERSON_AND_ORGANIZATION_ROLE ( 'classification_officer' ) ;
#25 = EDGE_LOOP ( 'NONE', ( #161, #60, #159, #183 ) ) ;
#26 = CLOSED_SHELL ( 'NONE', ( #92, #165, #5, #185, #19, #222, #230 ) ) ;
#27 = COORDINATED_UNIVERSAL_TIME_OFFSET ( 1, 0, .AHEAD. ) ;
#28 = APPROVAL_ROLE ( '' ) ;
#29 = CARTESIAN_POINT ( 'NONE',  ( 0.000000000000000000, 0.000000000000000000, 102.0000000000000142 ) ) ;
#30 = ORGANIZATION ( 'NEURÈENÝ', 'NEURÈENÝ', '' ) ;
#31 = ORIENTED_EDGE ( 'NONE', *, *, #235, .T. ) ;
#32 = VERTEX_POINT ( 'NONE', #104 ) ;
#33 = ORIENTED_EDGE ( 'NONE', *, *, #140, .F. ) ;
#34 = VERTEX_POINT ( 'NONE', #184 ) ;
#35 = CARTESIAN_POINT ( 'NONE',  ( 0.000000000000000000, 0.000000000000000000, 0.000000000000000000 ) ) ;
#36 = DIRECTION ( 'NONE',  ( 0.000000000000000000, 0.000000000000000000, 1.000000000000000000 ) ) ;
#37 = CARTESIAN_POINT ( 'NONE',  ( 1.000000000000000000, 1.224646799147353207E-16, 102.0000000000000142 ) ) ;
#38 = CC_DESIGN_DATE_AND_TIME_ASSIGNMENT ( #61, #199, ( #162 ) ) ;
#39 = DIRECTION ( 'NONE',  ( -0.000000000000000000, -0.000000000000000000, -1.000000000000000000 ) ) ;
#40 = CIRCLE ( 'NONE', #2, 2.000000000000000000 ) ;
#41 = DATE_AND_TIME ( #100, #150 ) ;
#42 = SECURITY_CLASSIFICATION_LEVEL ( 'unclassified' ) ;
#43 = ORIENTED_EDGE ( 'NONE', *, *, #125, .F. ) ;
#44 = APPROVAL_ROLE ( '' ) ;
#45 = MANIFOLD_SOLID_BREP ( 'Pøidat vysunutím3', #26 ) ;
#46 = DIRECTION ( 'NONE',  ( -0.000000000000000000, -0.000000000000000000, -1.000000000000000000 ) ) ;
#47 = ORIENTED_EDGE ( 'NONE', *, *, #140, .T. ) ;
#48 = DIRECTION ( 'NONE',  ( -0.000000000000000000, -0.000000000000000000, -1.000000000000000000 ) ) ;
#49 = ORIENTED_EDGE ( 'NONE', *, *, #152, .T. ) ;
#50 = EDGE_CURVE ( 'NONE', #34, #243, #187, .T. ) ;
#51 = ORIENTED_EDGE ( 'NONE', *, *, #170, .T. ) ;
#52 = AXIS2_PLACEMENT_3D ( 'NONE', #89, #39, #253 ) ;
#53 = LINE ( 'NONE', #251, #74 ) ;
#54 =( LENGTH_UNIT ( ) NAMED_UNIT ( * ) SI_UNIT ( .MILLI., .METRE. ) );
#55 = APPROVAL_PERSON_ORGANIZATION ( #58, #75, #116 ) ;
#56 = APPROVAL_PERSON_ORGANIZATION ( #98, #215, #44 ) ;
#57 = CARTESIAN_POINT ( 'NONE',  ( 0.000000000000000000, 0.000000000000000000, 2.000000000000000000 ) ) ;
#58 = PERSON_AND_ORGANIZATION ( #214, #30 ) ;
#59 = APPROVAL_STATUS ( 'not_yet_approved' ) ;
#60 = ORIENTED_EDGE ( 'NONE', *, *, #152, .F. ) ;
#61 = DATE_AND_TIME ( #238, #236 ) ;
#62 = EDGE_LOOP ( 'NONE', ( #43, #22, #11, #31 ) ) ;
#63 = CYLINDRICAL_SURFACE ( 'NONE', #12, 2.000000000000000000 ) ;
#64 = ORIENTED_EDGE ( 'NONE', *, *, #242, .T. ) ;
#65 = AXIS2_PLACEMENT_3D ( 'NONE', #227, #192, #167 ) ;
#66 = CARTESIAN_POINT ( 'NONE',  ( 0.000000000000000000, 0.000000000000000000, 0.000000000000000000 ) ) ;
#67 = VERTEX_POINT ( 'NONE', #143 ) ;
#68 = DIRECTION ( 'NONE',  ( 0.000000000000000000, 0.000000000000000000, 1.000000000000000000 ) ) ;
#69 = CC_DESIGN_PERSON_AND_ORGANIZATION_ASSIGNMENT ( #237, #217, ( #123 ) ) ;
#70 = DIRECTION ( 'NONE',  ( 1.000000000000000000, 0.000000000000000000, 0.000000000000000000 ) ) ;
#71 = CC_DESIGN_APPROVAL ( #80, ( #81 ) ) ;
#72 = LINE ( 'NONE', #37, #77 ) ;
#73 =( NAMED_UNIT ( * ) SI_UNIT ( $, .STERADIAN. ) SOLID_ANGLE_UNIT ( ) );
#74 = VECTOR ( 'NONE', #93, 1000.000000000000000 ) ;
#75 = APPROVAL ( #95, 'NEURÈENÝ' ) ;
#76 = PERSON_AND_ORGANIZATION ( #214, #30 ) ;
#77 = VECTOR ( 'NONE', #112, 1000.000000000000000 ) ;
#78 = PERSON_AND_ORGANIZATION_ROLE ( 'creator' ) ;
#79 = VERTEX_POINT ( 'NONE', #224 ) ;
#80 = APPROVAL ( #59, 'NEURÈENÝ' ) ;
#81 = PRODUCT_DEFINITION_FORMATION_WITH_SPECIFIED_SOURCE ( 'LIBOVOLNÝ', '', #123, .NOT_KNOWN. ) ;
#82 = ORIENTED_EDGE ( 'NONE', *, *, #218, .T. ) ;
#83 = ORIENTED_EDGE ( 'NONE', *, *, #170, .F. ) ;
#84 = VERTEX_POINT ( 'NONE', #223 ) ;
#85 = CC_DESIGN_SECURITY_CLASSIFICATION ( #162, ( #81 ) ) ;
#86 = CARTESIAN_POINT ( 'NONE',  ( 0.000000000000000000, 0.000000000000000000, 102.0000000000000142 ) ) ;
#87 = CARTESIAN_POINT ( 'NONE',  ( 2.000000000000000000, 2.449293598294706414E-16, 2.000000000000000000 ) ) ;
#88 = DIRECTION ( 'NONE',  ( -0.000000000000000000, -0.000000000000000000, -1.000000000000000000 ) ) ;
#89 = CARTESIAN_POINT ( 'NONE',  ( 0.000000000000000000, 0.000000000000000000, 2.000000000000000000 ) ) ;
#90 = AXIS2_PLACEMENT_3D ( 'NONE', #166, #248, #122 ) ;
#91 = PLANE ( 'NONE',  #106 ) ;
#92 = ADVANCED_FACE ( 'NONE', ( #207 ), #108, .T. ) ;
#93 = DIRECTION ( 'NONE',  ( -0.000000000000000000, -0.000000000000000000, -1.000000000000000000 ) ) ;
#94 = LOCAL_TIME ( 22, 25, 39.00000000000000000, #173 ) ;
#95 = APPROVAL_STATUS ( 'not_yet_approved' ) ;
#96 = VERTEX_POINT ( 'NONE', #148 ) ;
#97 = COORDINATED_UNIVERSAL_TIME_OFFSET ( 1, 0, .AHEAD. ) ;
#98 = PERSON_AND_ORGANIZATION ( #214, #30 ) ;
#99 = EDGE_CURVE ( 'NONE', #84, #32, #176, .T. ) ;
#100 = CALENDAR_DATE ( 2022, 30, 6 ) ;
#101 = APPROVAL_STATUS ( 'not_yet_approved' ) ;
#102 = DIRECTION ( 'NONE',  ( 1.000000000000000000, 0.000000000000000000, 0.000000000000000000 ) ) ;
#103 = ORIENTED_EDGE ( 'NONE', *, *, #125, .T. ) ;
#104 = CARTESIAN_POINT ( 'NONE',  ( -2.000000000000000000, 0.000000000000000000, 0.000000000000000000 ) ) ;
#105 = DIRECTION ( 'NONE',  ( 0.000000000000000000, 0.000000000000000000, 1.000000000000000000 ) ) ;
#106 = AXIS2_PLACEMENT_3D ( 'NONE', #194, #17, #168 ) ;
#107 = CC_DESIGN_PERSON_AND_ORGANIZATION_ASSIGNMENT ( #158, #118, ( #81 ) ) ;
#108 = CYLINDRICAL_SURFACE ( 'NONE', #250, 1.000000000000000000 ) ;
#109 = DIRECTION ( 'NONE',  ( 0.000000000000000000, 0.000000000000000000, 1.000000000000000000 ) ) ;
#110 = FACE_OUTER_BOUND ( 'NONE', #186, .T. ) ;
#111 = LINE ( 'NONE', #15, #130 ) ;
#112 = DIRECTION ( 'NONE',  ( -0.000000000000000000, -0.000000000000000000, -1.000000000000000000 ) ) ;
#113 = ORIENTED_EDGE ( 'NONE', *, *, #211, .F. ) ;
#114 = APPROVAL_PERSON_ORGANIZATION ( #76, #80, #28 ) ;
#115 = DATE_AND_TIME ( #255, #119 ) ;
#116 = APPROVAL_ROLE ( '' ) ;
#117 = ORIENTED_EDGE ( 'NONE', *, *, #235, .F. ) ;
#118 = PERSON_AND_ORGANIZATION_ROLE ( 'creator' ) ;
#119 = LOCAL_TIME ( 22, 25, 39.00000000000000000, #97 ) ;
#120 = CC_DESIGN_DATE_AND_TIME_ASSIGNMENT ( #4, #239, ( #198 ) ) ;
#121 = DIRECTION ( 'NONE',  ( 1.000000000000000000, 0.000000000000000000, 0.000000000000000000 ) ) ;
#122 = DIRECTION ( 'NONE',  ( 1.000000000000000000, 0.000000000000000000, 0.000000000000000000 ) ) ;
#123 = PRODUCT ( '96d5', '96d5', '', ( #3 ) ) ;
#124 = DIRECTION ( 'NONE',  ( 0.000000000000000000, 0.000000000000000000, 1.000000000000000000 ) ) ;
#125 = EDGE_CURVE ( 'NONE', #197, #84, #13, .T. ) ;
#126 = AXIS2_PLACEMENT_3D ( 'NONE', #29, #181, #7 ) ;
#127 = EDGE_LOOP ( 'NONE', ( #141, #82, #47, #8 ) ) ;
#128 = EDGE_LOOP ( 'NONE', ( #160, #33 ) ) ;
#129 = CARTESIAN_POINT ( 'NONE',  ( 0.000000000000000000, 0.000000000000000000, 0.000000000000000000 ) ) ;
#130 = VECTOR ( 'NONE', #88, 1000.000000000000000 ) ;
#131 = DIRECTION ( 'NONE',  ( 1.000000000000000000, 0.000000000000000000, 0.000000000000000000 ) ) ;
#132 = APPLICATION_PROTOCOL_DEFINITION ( 'international standard', 'config_control_design', 1994, #178 ) ;
#133 = FACE_OUTER_BOUND ( 'NONE', #25, .T. ) ;
#134 = AXIS2_PLACEMENT_3D ( 'NONE', #212, #149, #131 ) ;
#135 = CARTESIAN_POINT ( 'NONE',  ( 2.000000000000000000, 2.449293598294706414E-16, 2.000000000000000000 ) ) ;
#136 = SHAPE_DEFINITION_REPRESENTATION ( #234, #180 ) ;
#137 = CIRCLE ( 'NONE', #126, 1.000000000000000000 ) ;
#138 = CALENDAR_DATE ( 2022, 30, 6 ) ;
#139 = PERSON_AND_ORGANIZATION ( #214, #30 ) ;
#140 = EDGE_CURVE ( 'NONE', #243, #34, #146, .T. ) ;
#141 = ORIENTED_EDGE ( 'NONE', *, *, #247, .F. ) ;
#142 = AXIS2_PLACEMENT_3D ( 'NONE', #147, #105, #164 ) ;
#143 = CARTESIAN_POINT ( 'NONE',  ( 1.000000000000000000, 1.224646799147353207E-16, 102.0000000000000142 ) ) ;
#144 = EDGE_LOOP ( 'NONE', ( #83, #103, #221, #113 ) ) ;
#145 = FACE_OUTER_BOUND ( 'NONE', #62, .T. ) ;
#146 = CIRCLE ( 'NONE', #90, 1.000000000000000000 ) ;
#147 = CARTESIAN_POINT ( 'NONE',  ( 0.000000000000000000, 0.000000000000000000, 2.000000000000000000 ) ) ;
#148 = CARTESIAN_POINT ( 'NONE',  ( -1.000000000000000000, 0.000000000000000000, 102.0000000000000142 ) ) ;
#149 = DIRECTION ( 'NONE',  ( 0.000000000000000000, 0.000000000000000000, 1.000000000000000000 ) ) ;
#150 = LOCAL_TIME ( 22, 25, 39.00000000000000000, #27 ) ;
#151 = CYLINDRICAL_SURFACE ( 'NONE', #65, 1.000000000000000000 ) ;
#152 = EDGE_CURVE ( 'NONE', #96, #67, #137, .T. ) ;
#153 = DIRECTION ( 'NONE',  ( 1.000000000000000000, 0.000000000000000000, 0.000000000000000000 ) ) ;
#154 = DIRECTION ( 'NONE',  ( 1.000000000000000000, 0.000000000000000000, -0.000000000000000000 ) ) ;
#155 = COORDINATED_UNIVERSAL_TIME_OFFSET ( 1, 0, .AHEAD. ) ;
#156 = ORIENTED_EDGE ( 'NONE', *, *, #99, .F. ) ;
#157 = AXIS2_PLACEMENT_3D ( 'NONE', #190, #109, #154 ) ;
#158 = PERSON_AND_ORGANIZATION ( #214, #30 ) ;
#159 = ORIENTED_EDGE ( 'NONE', *, *, #206, .T. ) ;
#160 = ORIENTED_EDGE ( 'NONE', *, *, #50, .F. ) ;
#161 = ORIENTED_EDGE ( 'NONE', *, *, #218, .F. ) ;
#162 = SECURITY_CLASSIFICATION ( '', '', #42 ) ;
#163 = AXIS2_PLACEMENT_3D ( 'NONE', #14, #252, #153 ) ;
#164 = DIRECTION ( 'NONE',  ( 1.000000000000000000, 0.000000000000000000, 0.000000000000000000 ) ) ;
#165 = ADVANCED_FACE ( 'NONE', ( #18 ), #232, .T. ) ;
#166 = CARTESIAN_POINT ( 'NONE',  ( 0.000000000000000000, 0.000000000000000000, 2.000000000000000000 ) ) ;
#167 = DIRECTION ( 'NONE',  ( -1.000000000000000000, 0.000000000000000000, 0.000000000000000000 ) ) ;
#168 = DIRECTION ( 'NONE',  ( 1.000000000000000000, 0.000000000000000000, -0.000000000000000000 ) ) ;
#169 = CARTESIAN_POINT ( 'NONE',  ( 0.000000000000000000, 0.000000000000000000, 102.0000000000000142 ) ) ;
#170 = EDGE_CURVE ( 'NONE', #197, #79, #40, .T. ) ;
#171 = AXIS2_PLACEMENT_3D ( 'NONE', #35, #36, #121 ) ;
#172 = APPROVAL_DATE_TIME ( #41, #75 ) ;
#173 = COORDINATED_UNIVERSAL_TIME_OFFSET ( 1, 0, .AHEAD. ) ;
#174 = CC_DESIGN_PERSON_AND_ORGANIZATION_ASSIGNMENT ( #233, #216, ( #81 ) ) ;
#175 = APPROVAL_DATE_TIME ( #213, #80 ) ;
#176 = CIRCLE ( 'NONE', #240, 2.000000000000000000 ) ;
#177 = APPLICATION_PROTOCOL_DEFINITION ( 'international standard', 'config_control_design', 1994, #195 ) ;
#178 = APPLICATION_CONTEXT ( 'configuration controlled 3d designs of mechanical parts and assemblies' ) ;
#179 = CC_DESIGN_PERSON_AND_ORGANIZATION_ASSIGNMENT ( #139, #24, ( #162 ) ) ;
#180 = ADVANCED_BREP_SHAPE_REPRESENTATION ( '96d5', ( #45, #171 ), #20 ) ;
#181 = DIRECTION ( 'NONE',  ( 0.000000000000000000, 0.000000000000000000, 1.000000000000000000 ) ) ;
#182 = CIRCLE ( 'NONE', #134, 2.000000000000000000 ) ;
#183 = ORIENTED_EDGE ( 'NONE', *, *, #50, .T. ) ;
#184 = CARTESIAN_POINT ( 'NONE',  ( -1.000000000000000000, 0.000000000000000000, 2.000000000000000000 ) ) ;
#185 = ADVANCED_FACE ( 'NONE', ( #249, #110 ), #210, .T. ) ;
#186 = EDGE_LOOP ( 'NONE', ( #64, #51 ) ) ;
#187 = CIRCLE ( 'NONE', #142, 1.000000000000000000 ) ;
#188 = DIRECTION ( 'NONE',  ( 0.000000000000000000, 0.000000000000000000, 1.000000000000000000 ) ) ;
#189 = DIRECTION ( 'NONE',  ( 0.000000000000000000, 0.000000000000000000, 1.000000000000000000 ) ) ;
#190 = CARTESIAN_POINT ( 'NONE',  ( 0.000000000000000000, 0.000000000000000000, 2.000000000000000000 ) ) ;
#191 = AXIS2_PLACEMENT_3D ( 'NONE', #169, #189, #226 ) ;
#192 = DIRECTION ( 'NONE',  ( -0.000000000000000000, -0.000000000000000000, -1.000000000000000000 ) ) ;
#193 = FACE_OUTER_BOUND ( 'NONE', #241, .T. ) ;
#194 = CARTESIAN_POINT ( 'NONE',  ( 0.000000000000000000, 0.000000000000000000, 102.0000000000000142 ) ) ;
#195 = APPLICATION_CONTEXT ( 'configuration controlled 3d designs of mechanical parts and assemblies' ) ;
#196 = CC_DESIGN_APPROVAL ( #215, ( #198 ) ) ;
#197 = VERTEX_POINT ( 'NONE', #135 ) ;
#198 = PRODUCT_DEFINITION ( 'NEZNÁMÝ', '', #81, #208 ) ;
#199 = DATE_TIME_ROLE ( 'classification_date' ) ;
#200 = CC_DESIGN_APPROVAL ( #75, ( #162 ) ) ;
#201 = PERSON_AND_ORGANIZATION ( #214, #30 ) ;
#202 = DIRECTION ( 'NONE',  ( -1.000000000000000000, 0.000000000000000000, 0.000000000000000000 ) ) ;
#203 = FACE_OUTER_BOUND ( 'NONE', #220, .T. ) ;
#204 = AXIS2_PLACEMENT_3D ( 'NONE', #66, #124, #209 ) ;
#205 = ORIENTED_EDGE ( 'NONE', *, *, #247, .T. ) ;
#206 = EDGE_CURVE ( 'NONE', #96, #34, #53, .T. ) ;
#207 = FACE_OUTER_BOUND ( 'NONE', #127, .T. ) ;
#208 = DESIGN_CONTEXT ( 'detailed design', #195, 'design' ) ;
#209 = DIRECTION ( 'NONE',  ( 1.000000000000000000, 0.000000000000000000, -0.000000000000000000 ) ) ;
#210 = PLANE ( 'NONE',  #157 ) ;
#211 = EDGE_CURVE ( 'NONE', #79, #32, #111, .T. ) ;
#212 = CARTESIAN_POINT ( 'NONE',  ( 0.000000000000000000, 0.000000000000000000, 2.000000000000000000 ) ) ;
#213 = DATE_AND_TIME ( #21, #6 ) ;
#214 = PERSON ( 'NEURÈENÝ', 'NEURÈENÝ', 'NEURÈENÝ', ('NEURÈENÝ'), ('NEURÈENÝ'), ('NEURÈENÝ') ) ;
#215 = APPROVAL ( #101, 'NEURÈENÝ' ) ;
#216 = PERSON_AND_ORGANIZATION_ROLE ( 'design_supplier' ) ;
#217 = PERSON_AND_ORGANIZATION_ROLE ( 'design_owner' ) ;
#218 = EDGE_CURVE ( 'NONE', #67, #243, #72, .T. ) ;
#219 = DIRECTION ( 'NONE',  ( -1.000000000000000000, 0.000000000000000000, 0.000000000000000000 ) ) ;
#220 = EDGE_LOOP ( 'NONE', ( #117, #156 ) ) ;
#221 = ORIENTED_EDGE ( 'NONE', *, *, #99, .T. ) ;
#222 = ADVANCED_FACE ( 'NONE', ( #133 ), #151, .T. ) ;
#223 = CARTESIAN_POINT ( 'NONE',  ( 2.000000000000000000, 2.449293598294706414E-16, 0.000000000000000000 ) ) ;
#224 = CARTESIAN_POINT ( 'NONE',  ( -2.000000000000000000, 0.000000000000000000, 2.000000000000000000 ) ) ;
#225 = CC_DESIGN_PERSON_AND_ORGANIZATION_ASSIGNMENT ( #201, #78, ( #198 ) ) ;
#226 = DIRECTION ( 'NONE',  ( 1.000000000000000000, 0.000000000000000000, 0.000000000000000000 ) ) ;
#227 = CARTESIAN_POINT ( 'NONE',  ( 0.000000000000000000, 0.000000000000000000, 102.0000000000000142 ) ) ;
#228 = CARTESIAN_POINT ( 'NONE',  ( 1.000000000000000000, 1.224646799147353207E-16, 2.000000000000000000 ) ) ;
#229 =( NAMED_UNIT ( * ) PLANE_ANGLE_UNIT ( ) SI_UNIT ( $, .RADIAN. ) );
#230 = ADVANCED_FACE ( 'NONE', ( #193 ), #91, .T. ) ;
#231 = CIRCLE ( 'NONE', #191, 1.000000000000000000 ) ;
#232 = CYLINDRICAL_SURFACE ( 'NONE', #52, 2.000000000000000000 ) ;
#233 = PERSON_AND_ORGANIZATION ( #214, #30 ) ;
#234 = PRODUCT_DEFINITION_SHAPE ( 'NONE', 'NONE',  #198 ) ;
#235 = EDGE_CURVE ( 'NONE', #32, #84, #254, .T. ) ;
#236 = LOCAL_TIME ( 22, 25, 39.00000000000000000, #23 ) ;
#237 = PERSON_AND_ORGANIZATION ( #214, #30 ) ;
#238 = CALENDAR_DATE ( 2022, 30, 6 ) ;
#239 = DATE_TIME_ROLE ( 'creation_date' ) ;
#240 = AXIS2_PLACEMENT_3D ( 'NONE', #129, #188, #102 ) ;
#241 = EDGE_LOOP ( 'NONE', ( #49, #205 ) ) ;
#242 = EDGE_CURVE ( 'NONE', #79, #197, #182, .T. ) ;
#243 = VERTEX_POINT ( 'NONE', #228 ) ;
#244 = PLANE ( 'NONE',  #204 ) ;
#245 = VECTOR ( 'NONE', #46, 1000.000000000000000 ) ;
#246 = DIRECTION ( 'NONE',  ( -0.000000000000000000, -0.000000000000000000, -1.000000000000000000 ) ) ;
#247 = EDGE_CURVE ( 'NONE', #67, #96, #231, .T. ) ;
#248 = DIRECTION ( 'NONE',  ( 0.000000000000000000, 0.000000000000000000, 1.000000000000000000 ) ) ;
#249 = FACE_BOUND ( 'NONE', #128, .T. ) ;
#250 = AXIS2_PLACEMENT_3D ( 'NONE', #86, #246, #219 ) ;
#251 = CARTESIAN_POINT ( 'NONE',  ( -1.000000000000000000, 0.000000000000000000, 102.0000000000000142 ) ) ;
#252 = DIRECTION ( 'NONE',  ( 0.000000000000000000, 0.000000000000000000, 1.000000000000000000 ) ) ;
#253 = DIRECTION ( 'NONE',  ( -1.000000000000000000, 0.000000000000000000, 0.000000000000000000 ) ) ;
#254 = CIRCLE ( 'NONE', #163, 2.000000000000000000 ) ;
#255 = CALENDAR_DATE ( 2022, 30, 6 ) ;
ENDSEC;
END-ISO-10303-21;
