ISO-10303-21;
HEADER;
FILE_DESCRIPTION (( 'STEP AP203' ),
    '1' );
FILE_NAME ('078b.STEP',
    '2022-07-07T12:58:45',
    ( '' ),
    ( '' ),
    'SwSTEP 2.0',
    'SolidWorks 2019',
    '' );
FILE_SCHEMA (( 'CONFIG_CONTROL_DESIGN' ));
ENDSEC;

DATA;
#1 = PRODUCT_DEFINITION_SHAPE ( 'NONE', 'NONE',  #49 ) ;
#2 = DIRECTION ( 'NONE',  ( 0.000000000000000000, 0.000000000000000000, 1.000000000000000000 ) ) ;
#3 = CARTESIAN_POINT ( 'NONE',  ( 0.000000000000000000, 0.000000000000000000, 2.000000000000000000 ) ) ;
#4 = DIRECTION ( 'NONE',  ( 1.000000000000000000, 0.000000000000000000, 0.000000000000000000 ) ) ;
#5 = LOCAL_TIME ( 14, 58, 45.00000000000000000, #298 ) ;
#6 = CARTESIAN_POINT ( 'NONE',  ( 0.000000000000000000, 0.000000000000000000, 2.000000000000000000 ) ) ;
#7 = DIRECTION ( 'NONE',  ( 0.000000000000000000, 0.000000000000000000, -1.000000000000000000 ) ) ;
#8 = DIRECTION ( 'NONE',  ( 1.000000000000000000, 0.000000000000000000, 0.000000000000000000 ) ) ;
#9 =( GEOMETRIC_REPRESENTATION_CONTEXT ( 3 ) GLOBAL_UNCERTAINTY_ASSIGNED_CONTEXT ( ( #300 ) ) GLOBAL_UNIT_ASSIGNED_CONTEXT ( ( #55, #10, #56 ) ) REPRESENTATION_CONTEXT ( 'NONE', 'WORKASPACE' ) );
#10 =( NAMED_UNIT ( * ) PLANE_ANGLE_UNIT ( ) SI_UNIT ( $, .RADIAN. ) );
#11 = PERSON_AND_ORGANIZATION_ROLE ( 'design_owner' ) ;
#12 = PERSON ( 'NEURÈENÝ', 'NEURÈENÝ', 'NEURÈENÝ', ('NEURÈENÝ'), ('NEURÈENÝ'), ('NEURÈENÝ') ) ;
#13 = DATE_TIME_ROLE ( 'classification_date' ) ;
#14 = CIRCLE ( 'NONE', #31, 1.000000000000000000 ) ;
#15 = CALENDAR_DATE ( 2022, 7, 7 ) ;
#16 = CARTESIAN_POINT ( 'NONE',  ( 0.000000000000000000, 0.000000000000000000, 2.000000000000000000 ) ) ;
#17 = EDGE_CURVE ( 'NONE', #256, #226, #20, .T. ) ;
#18 = ORIENTED_EDGE ( 'NONE', *, *, #68, .T. ) ;
#19 = PERSON_AND_ORGANIZATION ( #12, #113 ) ;
#20 = LINE ( 'NONE', #277, #221 ) ;
#21 = CIRCLE ( 'NONE', #278, 2.000000000000000000 ) ;
#22 = CC_DESIGN_APPROVAL ( #200, ( #133 ) ) ;
#23 = ORIENTED_EDGE ( 'NONE', *, *, #279, .T. ) ;
#24 = DIRECTION ( 'NONE',  ( 0.000000000000000000, 0.000000000000000000, 1.000000000000000000 ) ) ;
#25 = DIRECTION ( 'NONE',  ( 0.000000000000000000, 0.000000000000000000, 1.000000000000000000 ) ) ;
#26 = VECTOR ( 'NONE', #208, 1000.000000000000000 ) ;
#27 = PLANE ( 'NONE',  #295 ) ;
#28 = EDGE_CURVE ( 'NONE', #84, #274, #179, .T. ) ;
#29 = CARTESIAN_POINT ( 'NONE',  ( 0.000000000000000000, 0.000000000000000000, 162.0000000000000000 ) ) ;
#30 = CYLINDRICAL_SURFACE ( 'NONE', #137, 2.000000000000000000 ) ;
#31 = AXIS2_PLACEMENT_3D ( 'NONE', #222, #119, #219 ) ;
#32 = APPROVAL_STATUS ( 'not_yet_approved' ) ;
#33 = CC_DESIGN_DATE_AND_TIME_ASSIGNMENT ( #247, #13, ( #79 ) ) ;
#34 = DIRECTION ( 'NONE',  ( 0.000000000000000000, 0.000000000000000000, 1.000000000000000000 ) ) ;
#35 = EDGE_CURVE ( 'NONE', #43, #203, #255, .T. ) ;
#36 = DATE_AND_TIME ( #174, #142 ) ;
#37 = ORIENTED_EDGE ( 'NONE', *, *, #275, .T. ) ;
#38 = VECTOR ( 'NONE', #195, 1000.000000000000000 ) ;
#39 = EDGE_CURVE ( 'NONE', #274, #84, #121, .T. ) ;
#40 = ORIENTED_EDGE ( 'NONE', *, *, #285, .F. ) ;
#41 = SECURITY_CLASSIFICATION_LEVEL ( 'unclassified' ) ;
#42 = ORIENTED_EDGE ( 'NONE', *, *, #216, .T. ) ;
#43 = VERTEX_POINT ( 'NONE', #124 ) ;
#44 = AXIS2_PLACEMENT_3D ( 'NONE', #220, #80, #264 ) ;
#45 = LOCAL_TIME ( 14, 58, 45.00000000000000000, #217 ) ;
#46 = ORIENTED_EDGE ( 'NONE', *, *, #216, .F. ) ;
#47 = PRODUCT ( '078b', '078b', '', ( #241 ) ) ;
#48 = CARTESIAN_POINT ( 'NONE',  ( 1.000000000000000000, 1.224646799147353207E-16, 2.200000000000007283 ) ) ;
#49 = PRODUCT_DEFINITION ( 'NEZNÁMÝ', '', #133, #244 ) ;
#50 = DIRECTION ( 'NONE',  ( 0.000000000000000000, 0.000000000000000000, 1.000000000000000000 ) ) ;
#51 = DIRECTION ( 'NONE',  ( -0.000000000000000000, -0.000000000000000000, -1.000000000000000000 ) ) ;
#52 = DIRECTION ( 'NONE',  ( 1.000000000000000000, 0.000000000000000000, -0.000000000000000000 ) ) ;
#53 = ADVANCED_FACE ( 'NONE', ( #103 ), #67, .T. ) ;
#54 = CIRCLE ( 'NONE', #158, 1.200000000000000178 ) ;
#55 =( LENGTH_UNIT ( ) NAMED_UNIT ( * ) SI_UNIT ( .MILLI., .METRE. ) );
#56 =( NAMED_UNIT ( * ) SI_UNIT ( $, .STERADIAN. ) SOLID_ANGLE_UNIT ( ) );
#57 = TOROIDAL_SURFACE ( 'NONE', #153, 1.200000000000000178, 0.2000000000000000111 ) ;
#58 = APPLICATION_PROTOCOL_DEFINITION ( 'international standard', 'config_control_design', 1994, #197 ) ;
#59 = CARTESIAN_POINT ( 'NONE',  ( 2.000000000000000000, 2.449293598294706414E-16, 2.000000000000000000 ) ) ;
#60 = VERTEX_POINT ( 'NONE', #92 ) ;
#61 = COORDINATED_UNIVERSAL_TIME_OFFSET ( 1, 0, .AHEAD. ) ;
#62 = DIRECTION ( 'NONE',  ( 0.000000000000000000, 0.000000000000000000, 1.000000000000000000 ) ) ;
#63 = COORDINATED_UNIVERSAL_TIME_OFFSET ( 1, 0, .AHEAD. ) ;
#64 = AXIS2_PLACEMENT_3D ( 'NONE', #233, #50, #211 ) ;
#65 = ORIENTED_EDGE ( 'NONE', *, *, #291, .F. ) ;
#66 = CALENDAR_DATE ( 2022, 7, 7 ) ;
#67 = CYLINDRICAL_SURFACE ( 'NONE', #302, 1.000000000000000000 ) ;
#68 = EDGE_CURVE ( 'NONE', #203, #43, #54, .T. ) ;
#69 = ORIENTED_EDGE ( 'NONE', *, *, #35, .F. ) ;
#70 = DIRECTION ( 'NONE',  ( 1.000000000000000000, 0.000000000000000000, 0.000000000000000000 ) ) ;
#71 = CARTESIAN_POINT ( 'NONE',  ( 1.000000000000000000, 1.224646799147353207E-16, 162.0000000000000000 ) ) ;
#72 = FACE_OUTER_BOUND ( 'NONE', #150, .T. ) ;
#73 = CARTESIAN_POINT ( 'NONE',  ( 0.000000000000000000, 0.000000000000000000, 2.000000000000000000 ) ) ;
#74 = DIRECTION ( 'NONE',  ( 1.000000000000000000, 0.000000000000000000, 0.000000000000000000 ) ) ;
#75 = DIRECTION ( 'NONE',  ( -1.000000000000000000, 0.000000000000000000, 0.000000000000000000 ) ) ;
#76 = DATE_AND_TIME ( #93, #45 ) ;
#77 = AXIS2_PLACEMENT_3D ( 'NONE', #164, #110, #52 ) ;
#78 = CIRCLE ( 'NONE', #171, 1.000000000000000000 ) ;
#79 = SECURITY_CLASSIFICATION ( '', '', #41 ) ;
#80 = DIRECTION ( 'NONE',  ( 0.000000000000000000, 0.000000000000000000, 1.000000000000000000 ) ) ;
#81 = DIRECTION ( 'NONE',  ( -0.000000000000000000, -0.000000000000000000, -1.000000000000000000 ) ) ;
#82 = DIRECTION ( 'NONE',  ( 0.000000000000000000, 0.000000000000000000, 1.000000000000000000 ) ) ;
#83 = ORIENTED_EDGE ( 'NONE', *, *, #193, .F. ) ;
#84 = VERTEX_POINT ( 'NONE', #48 ) ;
#85 = EDGE_CURVE ( 'NONE', #104, #226, #283, .T. ) ;
#86 = PERSON_AND_ORGANIZATION ( #12, #113 ) ;
#87 = ORIENTED_EDGE ( 'NONE', *, *, #85, .T. ) ;
#88 = FACE_OUTER_BOUND ( 'NONE', #227, .T. ) ;
#89 = DIRECTION ( 'NONE',  ( 1.000000000000000000, 0.000000000000000000, 0.000000000000000000 ) ) ;
#90 = CARTESIAN_POINT ( 'NONE',  ( 0.000000000000000000, 0.000000000000000000, 162.0000000000000000 ) ) ;
#91 = DIRECTION ( 'NONE',  ( 0.000000000000000000, 0.000000000000000000, 1.000000000000000000 ) ) ;
#92 = CARTESIAN_POINT ( 'NONE',  ( 2.000000000000000000, 2.449293598294706414E-16, 2.000000000000000000 ) ) ;
#93 = CALENDAR_DATE ( 2022, 7, 7 ) ;
#94 = CARTESIAN_POINT ( 'NONE',  ( -1.000000000000000000, 0.000000000000000000, 2.200000000000007283 ) ) ;
#95 = AXIS2_PLACEMENT_3D ( 'NONE', #243, #34, #97 ) ;
#96 = CC_DESIGN_PERSON_AND_ORGANIZATION_ASSIGNMENT ( #170, #11, ( #47 ) ) ;
#97 = DIRECTION ( 'NONE',  ( 1.000000000000000000, 0.000000000000000000, 0.000000000000000000 ) ) ;
#98 = CALENDAR_DATE ( 2022, 7, 7 ) ;
#99 = ORIENTED_EDGE ( 'NONE', *, *, #140, .T. ) ;
#100 = DATE_AND_TIME ( #66, #5 ) ;
#101 = DIRECTION ( 'NONE',  ( -0.000000000000000000, -0.000000000000000000, -1.000000000000000000 ) ) ;
#102 = PERSON_AND_ORGANIZATION ( #12, #113 ) ;
#103 = FACE_OUTER_BOUND ( 'NONE', #129, .T. ) ;
#104 = VERTEX_POINT ( 'NONE', #187 ) ;
#105 = ORIENTED_EDGE ( 'NONE', *, *, #85, .F. ) ;
#106 = CC_DESIGN_DATE_AND_TIME_ASSIGNMENT ( #76, #176, ( #49 ) ) ;
#107 = DIRECTION ( 'NONE',  ( 1.224646799147353207E-16, 1.000000000000000000, -0.000000000000000000 ) ) ;
#108 = CARTESIAN_POINT ( 'NONE',  ( 0.000000000000000000, 0.000000000000000000, 162.0000000000000000 ) ) ;
#109 = AXIS2_PLACEMENT_3D ( 'NONE', #175, #62, #70 ) ;
#110 = DIRECTION ( 'NONE',  ( 0.000000000000000000, 0.000000000000000000, 1.000000000000000000 ) ) ;
#111 = DIRECTION ( 'NONE',  ( -0.000000000000000000, -0.000000000000000000, -1.000000000000000000 ) ) ;
#112 = FACE_OUTER_BOUND ( 'NONE', #297, .T. ) ;
#113 = ORGANIZATION ( 'NEURÈENÝ', 'NEURÈENÝ', '' ) ;
#114 = PERSON_AND_ORGANIZATION_ROLE ( 'creator' ) ;
#115 = PRODUCT_RELATED_PRODUCT_CATEGORY ( 'detail', '', ( #47 ) ) ;
#116 = CARTESIAN_POINT ( 'NONE',  ( -1.000000000000000000, 0.000000000000000000, 162.0000000000000000 ) ) ;
#117 = DIRECTION ( 'NONE',  ( 0.000000000000000000, -1.000000000000000000, 0.000000000000000000 ) ) ;
#118 = DIRECTION ( 'NONE',  ( 0.000000000000000000, 0.000000000000000000, 1.000000000000000000 ) ) ;
#119 = DIRECTION ( 'NONE',  ( 0.000000000000000000, 0.000000000000000000, 1.000000000000000000 ) ) ;
#120 = ORIENTED_EDGE ( 'NONE', *, *, #17, .F. ) ;
#121 = CIRCLE ( 'NONE', #196, 1.000000000000000000 ) ;
#122 = PERSON_AND_ORGANIZATION_ROLE ( 'design_supplier' ) ;
#123 = ORIENTED_EDGE ( 'NONE', *, *, #291, .T. ) ;
#124 = CARTESIAN_POINT ( 'NONE',  ( 1.200000000000000178, 0.000000000000000000, 2.000000000000003553 ) ) ;
#125 = PERSON_AND_ORGANIZATION ( #12, #113 ) ;
#126 = ADVANCED_FACE ( 'NONE', ( #280 ), #30, .T. ) ;
#127 = EDGE_LOOP ( 'NONE', ( #231, #181, #147, #269 ) ) ;
#128 = AXIS2_PLACEMENT_3D ( 'NONE', #3, #236, #307 ) ;
#129 = EDGE_LOOP ( 'NONE', ( #46, #152, #23, #271 ) ) ;
#130 = EDGE_LOOP ( 'NONE', ( #83, #248, #37, #253 ) ) ;
#131 = DIRECTION ( 'NONE',  ( 1.000000000000000000, 0.000000000000000000, 0.000000000000000000 ) ) ;
#132 = CYLINDRICAL_SURFACE ( 'NONE', #128, 2.000000000000000000 ) ;
#133 = PRODUCT_DEFINITION_FORMATION_WITH_SPECIFIED_SOURCE ( 'LIBOVOLNÝ', '', #47, .NOT_KNOWN. ) ;
#134 = CC_DESIGN_PERSON_AND_ORGANIZATION_ASSIGNMENT ( #86, #122, ( #133 ) ) ;
#135 = CARTESIAN_POINT ( 'NONE',  ( 0.000000000000000000, 0.000000000000000000, 0.000000000000000000 ) ) ;
#136 = CARTESIAN_POINT ( 'NONE',  ( -1.200000000000000178, 1.469576158976823799E-16, 2.200000000000007283 ) ) ;
#137 = AXIS2_PLACEMENT_3D ( 'NONE', #281, #111, #235 ) ;
#138 = CC_DESIGN_APPROVAL ( #272, ( #79 ) ) ;
#139 = DIRECTION ( 'NONE',  ( 0.000000000000000000, 0.000000000000000000, 1.000000000000000000 ) ) ;
#140 = EDGE_CURVE ( 'NONE', #256, #60, #21, .T. ) ;
#141 = AXIS2_PLACEMENT_3D ( 'NONE', #135, #188, #4 ) ;
#142 = LOCAL_TIME ( 14, 58, 45.00000000000000000, #63 ) ;
#143 = PERSON_AND_ORGANIZATION ( #12, #113 ) ;
#144 = ADVANCED_FACE ( 'NONE', ( #282 ), #27, .F. ) ;
#145 = EDGE_LOOP ( 'NONE', ( #254, #18 ) ) ;
#146 = APPROVAL_DATE_TIME ( #36, #200 ) ;
#147 = ORIENTED_EDGE ( 'NONE', *, *, #17, .T. ) ;
#148 = EDGE_LOOP ( 'NONE', ( #99, #123 ) ) ;
#149 = ADVANCED_FACE ( 'NONE', ( #112 ), #159, .T. ) ;
#150 = EDGE_LOOP ( 'NONE', ( #202, #184, #69, #206 ) ) ;
#151 = APPROVAL_DATE_TIME ( #100, #272 ) ;
#152 = ORIENTED_EDGE ( 'NONE', *, *, #265, .F. ) ;
#153 = AXIS2_PLACEMENT_3D ( 'NONE', #191, #24, #157 ) ;
#154 = ADVANCED_FACE ( 'NONE', ( #215 ), #286, .T. ) ;
#155 = EDGE_LOOP ( 'NONE', ( #40, #105 ) ) ;
#156 = CARTESIAN_POINT ( 'NONE',  ( -1.000000000000000000, 0.000000000000000000, 162.0000000000000000 ) ) ;
#157 = DIRECTION ( 'NONE',  ( 1.000000000000000000, 0.000000000000000000, 0.000000000000000000 ) ) ;
#158 = AXIS2_PLACEMENT_3D ( 'NONE', #6, #237, #89 ) ;
#159 = CYLINDRICAL_SURFACE ( 'NONE', #190, 1.000000000000000000 ) ;
#160 = AXIS2_PLACEMENT_3D ( 'NONE', #198, #139, #292 ) ;
#161 = APPROVAL_PERSON_ORGANIZATION ( #143, #242, #294 ) ;
#162 = ADVANCED_FACE ( 'NONE', ( #72 ), #57, .F. ) ;
#163 = DIRECTION ( 'NONE',  ( -1.000000000000000000, 0.000000000000000000, 0.000000000000000000 ) ) ;
#164 = CARTESIAN_POINT ( 'NONE',  ( 0.000000000000000000, 0.000000000000000000, 162.0000000000000000 ) ) ;
#165 = PLANE ( 'NONE',  #44 ) ;
#166 = AXIS2_PLACEMENT_3D ( 'NONE', #16, #101, #299 ) ;
#167 = CIRCLE ( 'NONE', #296, 2.000000000000000000 ) ;
#168 = LINE ( 'NONE', #59, #210 ) ;
#169 = FACE_BOUND ( 'NONE', #145, .T. ) ;
#170 = PERSON_AND_ORGANIZATION ( #12, #113 ) ;
#171 = AXIS2_PLACEMENT_3D ( 'NONE', #108, #2, #74 ) ;
#172 = LOCAL_TIME ( 14, 58, 45.00000000000000000, #61 ) ;
#173 = APPROVAL_DATE_TIME ( #287, #242 ) ;
#174 = CALENDAR_DATE ( 2022, 7, 7 ) ;
#175 = CARTESIAN_POINT ( 'NONE',  ( 0.000000000000000000, 0.000000000000000000, 2.200000000000007283 ) ) ;
#176 = DATE_TIME_ROLE ( 'creation_date' ) ;
#177 = EDGE_LOOP ( 'NONE', ( #304, #228 ) ) ;
#178 = APPLICATION_CONTEXT ( 'configuration controlled 3d designs of mechanical parts and assemblies' ) ;
#179 = CIRCLE ( 'NONE', #109, 1.000000000000000000 ) ;
#180 = APPROVAL_PERSON_ORGANIZATION ( #125, #272, #270 ) ;
#181 = ORIENTED_EDGE ( 'NONE', *, *, #140, .F. ) ;
#182 = ORIENTED_EDGE ( 'NONE', *, *, #28, .T. ) ;
#183 = SHAPE_DEFINITION_REPRESENTATION ( #1, #218 ) ;
#184 = ORIENTED_EDGE ( 'NONE', *, *, #193, .T. ) ;
#185 = CIRCLE ( 'NONE', #239, 0.2000000000000000944 ) ;
#186 = FACE_OUTER_BOUND ( 'NONE', #130, .T. ) ;
#187 = CARTESIAN_POINT ( 'NONE',  ( 2.000000000000000000, 2.449293598294706414E-16, 0.000000000000000000 ) ) ;
#188 = DIRECTION ( 'NONE',  ( 0.000000000000000000, 0.000000000000000000, 1.000000000000000000 ) ) ;
#189 = CC_DESIGN_PERSON_AND_ORGANIZATION_ASSIGNMENT ( #267, #114, ( #49 ) ) ;
#190 = AXIS2_PLACEMENT_3D ( 'NONE', #29, #213, #163 ) ;
#191 = CARTESIAN_POINT ( 'NONE',  ( 0.000000000000000000, 0.000000000000000000, 2.200000000000007283 ) ) ;
#192 = DIRECTION ( 'NONE',  ( 1.000000000000000000, 0.000000000000000000, -0.000000000000000000 ) ) ;
#193 = EDGE_CURVE ( 'NONE', #274, #203, #229, .T. ) ;
#194 = COORDINATED_UNIVERSAL_TIME_OFFSET ( 1, 0, .AHEAD. ) ;
#195 = DIRECTION ( 'NONE',  ( -0.000000000000000000, -0.000000000000000000, -1.000000000000000000 ) ) ;
#196 = AXIS2_PLACEMENT_3D ( 'NONE', #301, #82, #251 ) ;
#197 = APPLICATION_CONTEXT ( 'configuration controlled 3d designs of mechanical parts and assemblies' ) ;
#198 = CARTESIAN_POINT ( 'NONE',  ( 0.000000000000000000, 0.000000000000000000, 0.000000000000000000 ) ) ;
#199 = FACE_OUTER_BOUND ( 'NONE', #148, .T. ) ;
#200 = APPROVAL ( #225, 'NEURÈENÝ' ) ;
#201 = ORIENTED_EDGE ( 'NONE', *, *, #279, .F. ) ;
#202 = ORIENTED_EDGE ( 'NONE', *, *, #39, .F. ) ;
#203 = VERTEX_POINT ( 'NONE', #258 ) ;
#204 = CC_DESIGN_APPROVAL ( #242, ( #49 ) ) ;
#205 = VERTEX_POINT ( 'NONE', #156 ) ;
#206 = ORIENTED_EDGE ( 'NONE', *, *, #275, .F. ) ;
#207 = CC_DESIGN_PERSON_AND_ORGANIZATION_ASSIGNMENT ( #19, #305, ( #133 ) ) ;
#208 = DIRECTION ( 'NONE',  ( -0.000000000000000000, -0.000000000000000000, -1.000000000000000000 ) ) ;
#209 = MANIFOLD_SOLID_BREP ( 'Zaoblit1', #303 ) ;
#210 = VECTOR ( 'NONE', #238, 1000.000000000000000 ) ;
#211 = DIRECTION ( 'NONE',  ( 1.000000000000000000, 0.000000000000000000, 0.000000000000000000 ) ) ;
#212 = LINE ( 'NONE', #71, #26 ) ;
#213 = DIRECTION ( 'NONE',  ( -0.000000000000000000, -0.000000000000000000, -1.000000000000000000 ) ) ;
#214 = TOROIDAL_SURFACE ( 'NONE', #64, 1.200000000000000178, 0.2000000000000000111 ) ;
#215 = FACE_OUTER_BOUND ( 'NONE', #177, .T. ) ;
#216 = EDGE_CURVE ( 'NONE', #232, #84, #212, .T. ) ;
#217 = COORDINATED_UNIVERSAL_TIME_OFFSET ( 1, 0, .AHEAD. ) ;
#218 = ADVANCED_BREP_SHAPE_REPRESENTATION ( '078b', ( #209, #95 ), #9 ) ;
#219 = DIRECTION ( 'NONE',  ( 1.000000000000000000, 0.000000000000000000, 0.000000000000000000 ) ) ;
#220 = CARTESIAN_POINT ( 'NONE',  ( 0.000000000000000000, 0.000000000000000000, 2.000000000000000000 ) ) ;
#221 = VECTOR ( 'NONE', #81, 1000.000000000000000 ) ;
#222 = CARTESIAN_POINT ( 'NONE',  ( 0.000000000000000000, 0.000000000000000000, 162.0000000000000000 ) ) ;
#223 = ADVANCED_FACE ( 'NONE', ( #186 ), #214, .F. ) ;
#224 = ADVANCED_FACE ( 'NONE', ( #88 ), #132, .T. ) ;
#225 = APPROVAL_STATUS ( 'not_yet_approved' ) ;
#226 = VERTEX_POINT ( 'NONE', #257 ) ;
#227 = EDGE_LOOP ( 'NONE', ( #65, #306, #87, #120 ) ) ;
#228 = ORIENTED_EDGE ( 'NONE', *, *, #234, .T. ) ;
#229 = CIRCLE ( 'NONE', #288, 0.2000000000000000944 ) ;
#230 = APPROVAL_PERSON_ORGANIZATION ( #102, #200, #252 ) ;
#231 = ORIENTED_EDGE ( 'NONE', *, *, #293, .F. ) ;
#232 = VERTEX_POINT ( 'NONE', #260 ) ;
#233 = CARTESIAN_POINT ( 'NONE',  ( 0.000000000000000000, 0.000000000000000000, 2.200000000000007283 ) ) ;
#234 = EDGE_CURVE ( 'NONE', #232, #205, #78, .T. ) ;
#235 = DIRECTION ( 'NONE',  ( -1.000000000000000000, 0.000000000000000000, 0.000000000000000000 ) ) ;
#236 = DIRECTION ( 'NONE',  ( -0.000000000000000000, -0.000000000000000000, -1.000000000000000000 ) ) ;
#237 = DIRECTION ( 'NONE',  ( -0.000000000000000000, -0.000000000000000000, -1.000000000000000000 ) ) ;
#238 = DIRECTION ( 'NONE',  ( -0.000000000000000000, -0.000000000000000000, -1.000000000000000000 ) ) ;
#239 = AXIS2_PLACEMENT_3D ( 'NONE', #240, #117, #7 ) ;
#240 = CARTESIAN_POINT ( 'NONE',  ( 1.200000000000000178, 0.000000000000000000, 2.200000000000007283 ) ) ;
#241 = MECHANICAL_CONTEXT ( 'NONE', #178, 'mechanical' ) ;
#242 = APPROVAL ( #32, 'NEURÈENÝ' ) ;
#243 = CARTESIAN_POINT ( 'NONE',  ( 0.000000000000000000, 0.000000000000000000, 0.000000000000000000 ) ) ;
#244 = DESIGN_CONTEXT ( 'detailed design', #197, 'design' ) ;
#245 = LINE ( 'NONE', #116, #38 ) ;
#246 = CC_DESIGN_PERSON_AND_ORGANIZATION_ASSIGNMENT ( #250, #268, ( #79 ) ) ;
#247 = DATE_AND_TIME ( #15, #172 ) ;
#248 = ORIENTED_EDGE ( 'NONE', *, *, #28, .F. ) ;
#249 = LOCAL_TIME ( 14, 58, 45.00000000000000000, #194 ) ;
#250 = PERSON_AND_ORGANIZATION ( #12, #113 ) ;
#251 = DIRECTION ( 'NONE',  ( 1.000000000000000000, 0.000000000000000000, 0.000000000000000000 ) ) ;
#252 = APPROVAL_ROLE ( '' ) ;
#253 = ORIENTED_EDGE ( 'NONE', *, *, #68, .F. ) ;
#254 = ORIENTED_EDGE ( 'NONE', *, *, #35, .T. ) ;
#255 = CIRCLE ( 'NONE', #166, 1.200000000000000178 ) ;
#256 = VERTEX_POINT ( 'NONE', #262 ) ;
#257 = CARTESIAN_POINT ( 'NONE',  ( -2.000000000000000000, 0.000000000000000000, 0.000000000000000000 ) ) ;
#258 = CARTESIAN_POINT ( 'NONE',  ( -1.200000000000000178, 1.469576158976823799E-16, 2.000000000000003553 ) ) ;
#259 = CC_DESIGN_SECURITY_CLASSIFICATION ( #79, ( #133 ) ) ;
#260 = CARTESIAN_POINT ( 'NONE',  ( 1.000000000000000000, 1.224646799147353207E-16, 162.0000000000000000 ) ) ;
#261 = ADVANCED_FACE ( 'NONE', ( #169, #199 ), #165, .T. ) ;
#262 = CARTESIAN_POINT ( 'NONE',  ( -2.000000000000000000, 0.000000000000000000, 2.000000000000000000 ) ) ;
#263 = CARTESIAN_POINT ( 'NONE',  ( 0.000000000000000000, 0.000000000000000000, 0.000000000000000000 ) ) ;
#264 = DIRECTION ( 'NONE',  ( 1.000000000000000000, 0.000000000000000000, -0.000000000000000000 ) ) ;
#265 = EDGE_CURVE ( 'NONE', #205, #232, #14, .T. ) ;
#266 = APPLICATION_PROTOCOL_DEFINITION ( 'international standard', 'config_control_design', 1994, #178 ) ;
#267 = PERSON_AND_ORGANIZATION ( #12, #113 ) ;
#268 = PERSON_AND_ORGANIZATION_ROLE ( 'classification_officer' ) ;
#269 = ORIENTED_EDGE ( 'NONE', *, *, #285, .T. ) ;
#270 = APPROVAL_ROLE ( '' ) ;
#271 = ORIENTED_EDGE ( 'NONE', *, *, #39, .T. ) ;
#272 = APPROVAL ( #273, 'NEURÈENÝ' ) ;
#273 = APPROVAL_STATUS ( 'not_yet_approved' ) ;
#274 = VERTEX_POINT ( 'NONE', #94 ) ;
#275 = EDGE_CURVE ( 'NONE', #84, #43, #185, .T. ) ;
#276 = ORIENTED_EDGE ( 'NONE', *, *, #234, .F. ) ;
#277 = CARTESIAN_POINT ( 'NONE',  ( -2.000000000000000000, 0.000000000000000000, 2.000000000000000000 ) ) ;
#278 = AXIS2_PLACEMENT_3D ( 'NONE', #73, #25, #131 ) ;
#279 = EDGE_CURVE ( 'NONE', #205, #274, #245, .T. ) ;
#280 = FACE_OUTER_BOUND ( 'NONE', #127, .T. ) ;
#281 = CARTESIAN_POINT ( 'NONE',  ( 0.000000000000000000, 0.000000000000000000, 2.000000000000000000 ) ) ;
#282 = FACE_OUTER_BOUND ( 'NONE', #155, .T. ) ;
#283 = CIRCLE ( 'NONE', #141, 2.000000000000000000 ) ;
#284 = DIRECTION ( 'NONE',  ( -1.000000000000000000, 1.224646799147351975E-16, 0.000000000000000000 ) ) ;
#285 = EDGE_CURVE ( 'NONE', #226, #104, #290, .T. ) ;
#286 = PLANE ( 'NONE',  #77 ) ;
#287 = DATE_AND_TIME ( #98, #249 ) ;
#288 = AXIS2_PLACEMENT_3D ( 'NONE', #136, #107, #284 ) ;
#289 = CARTESIAN_POINT ( 'NONE',  ( 0.000000000000000000, 0.000000000000000000, 2.000000000000000000 ) ) ;
#290 = CIRCLE ( 'NONE', #160, 2.000000000000000000 ) ;
#291 = EDGE_CURVE ( 'NONE', #60, #256, #167, .T. ) ;
#292 = DIRECTION ( 'NONE',  ( 1.000000000000000000, 0.000000000000000000, 0.000000000000000000 ) ) ;
#293 = EDGE_CURVE ( 'NONE', #60, #104, #168, .T. ) ;
#294 = APPROVAL_ROLE ( '' ) ;
#295 = AXIS2_PLACEMENT_3D ( 'NONE', #263, #91, #192 ) ;
#296 = AXIS2_PLACEMENT_3D ( 'NONE', #289, #118, #8 ) ;
#297 = EDGE_LOOP ( 'NONE', ( #276, #42, #182, #201 ) ) ;
#298 = COORDINATED_UNIVERSAL_TIME_OFFSET ( 1, 0, .AHEAD. ) ;
#299 = DIRECTION ( 'NONE',  ( 1.000000000000000000, 0.000000000000000000, 0.000000000000000000 ) ) ;
#300 = UNCERTAINTY_MEASURE_WITH_UNIT (LENGTH_MEASURE( 1.000000000000000082E-05 ), #55, 'distance_accuracy_value', 'NONE');
#301 = CARTESIAN_POINT ( 'NONE',  ( 0.000000000000000000, 0.000000000000000000, 2.200000000000007283 ) ) ;
#302 = AXIS2_PLACEMENT_3D ( 'NONE', #90, #51, #75 ) ;
#303 = CLOSED_SHELL ( 'NONE', ( #162, #149, #224, #126, #261, #144, #53, #154, #223 ) ) ;
#304 = ORIENTED_EDGE ( 'NONE', *, *, #265, .T. ) ;
#305 = PERSON_AND_ORGANIZATION_ROLE ( 'creator' ) ;
#306 = ORIENTED_EDGE ( 'NONE', *, *, #293, .T. ) ;
#307 = DIRECTION ( 'NONE',  ( -1.000000000000000000, 0.000000000000000000, 0.000000000000000000 ) ) ;
ENDSEC;
END-ISO-10303-21;
