ISO-10303-21;
HEADER;
FILE_DESCRIPTION (( 'STEP AP203' ),
    '1' );
FILE_NAME ('8b1b.STEP',
    '2022-07-07T12:49:51',
    ( '' ),
    ( '' ),
    'SwSTEP 2.0',
    'SolidWorks 2019',
    '' );
FILE_SCHEMA (( 'CONFIG_CONTROL_DESIGN' ));
ENDSEC;

DATA;
#1 = ORIENTED_EDGE ( 'NONE', *, *, #122, .F. ) ;
#2 = VERTEX_POINT ( 'NONE', #92 ) ;
#3 = PLANE ( 'NONE',  #166 ) ;
#4 = ADVANCED_FACE ( 'NONE', ( #284 ), #143, .T. ) ;
#5 = CC_DESIGN_PERSON_AND_ORGANIZATION_ASSIGNMENT ( #243, #9, ( #170 ) ) ;
#6 = DIRECTION ( 'NONE',  ( -0.000000000000000000, -0.000000000000000000, -1.000000000000000000 ) ) ;
#7 = LOCAL_TIME ( 14, 49, 51.00000000000000000, #293 ) ;
#8 = CALENDAR_DATE ( 2022, 7, 7 ) ;
#9 = PERSON_AND_ORGANIZATION_ROLE ( 'creator' ) ;
#10 = CIRCLE ( 'NONE', #182, 4.000000000000000000 ) ;
#11 = APPROVAL_ROLE ( '' ) ;
#12 = CIRCLE ( 'NONE', #91, 0.2000000000000000944 ) ;
#13 = DIRECTION ( 'NONE',  ( 1.000000000000000000, 0.000000000000000000, 0.000000000000000000 ) ) ;
#14 = DIRECTION ( 'NONE',  ( -0.000000000000000000, -0.000000000000000000, -1.000000000000000000 ) ) ;
#15 = CARTESIAN_POINT ( 'NONE',  ( 0.000000000000000000, 0.000000000000000000, 203.0000000000000000 ) ) ;
#16 = ADVANCED_FACE ( 'NONE', ( #186 ), #3, .F. ) ;
#17 =( GEOMETRIC_REPRESENTATION_CONTEXT ( 3 ) GLOBAL_UNCERTAINTY_ASSIGNED_CONTEXT ( ( #223 ) ) GLOBAL_UNIT_ASSIGNED_CONTEXT ( ( #77, #36, #292 ) ) REPRESENTATION_CONTEXT ( 'NONE', 'WORKASPACE' ) );
#18 = ORIENTED_EDGE ( 'NONE', *, *, #210, .F. ) ;
#19 = CYLINDRICAL_SURFACE ( 'NONE', #123, 4.000000000000000000 ) ;
#20 = CC_DESIGN_PERSON_AND_ORGANIZATION_ASSIGNMENT ( #110, #106, ( #119 ) ) ;
#21 = SHAPE_DEFINITION_REPRESENTATION ( #30, #198 ) ;
#22 = CARTESIAN_POINT ( 'NONE',  ( 0.000000000000000000, 0.000000000000000000, 3.000000000000000000 ) ) ;
#23 = EDGE_LOOP ( 'NONE', ( #236, #257 ) ) ;
#24 = ORIENTED_EDGE ( 'NONE', *, *, #262, .F. ) ;
#25 = ADVANCED_FACE ( 'NONE', ( #282 ), #259, .T. ) ;
#26 = CC_DESIGN_APPROVAL ( #217, ( #119 ) ) ;
#27 = ORIENTED_EDGE ( 'NONE', *, *, #240, .T. ) ;
#28 = ORIENTED_EDGE ( 'NONE', *, *, #216, .F. ) ;
#29 = ADVANCED_FACE ( 'NONE', ( #68 ), #32, .F. ) ;
#30 = PRODUCT_DEFINITION_SHAPE ( 'NONE', 'NONE',  #170 ) ;
#31 = DESIGN_CONTEXT ( 'detailed design', #300, 'design' ) ;
#32 = TOROIDAL_SURFACE ( 'NONE', #242, 2.300000000000000266, 0.2000000000000000111 ) ;
#33 = DATE_AND_TIME ( #267, #237 ) ;
#34 = LINE ( 'NONE', #57, #220 ) ;
#35 = CLOSED_SHELL ( 'NONE', ( #139, #100, #191, #25, #114, #16, #136, #4, #29 ) ) ;
#36 =( NAMED_UNIT ( * ) PLANE_ANGLE_UNIT ( ) SI_UNIT ( $, .RADIAN. ) );
#37 = DIRECTION ( 'NONE',  ( 1.000000000000000000, 0.000000000000000000, 0.000000000000000000 ) ) ;
#38 = CIRCLE ( 'NONE', #53, 2.100000000000000089 ) ;
#39 = DIRECTION ( 'NONE',  ( 1.000000000000000000, 0.000000000000000000, 0.000000000000000000 ) ) ;
#40 = CARTESIAN_POINT ( 'NONE',  ( 0.000000000000000000, 0.000000000000000000, 0.000000000000000000 ) ) ;
#41 = COORDINATED_UNIVERSAL_TIME_OFFSET ( 1, 0, .AHEAD. ) ;
#42 = FACE_OUTER_BOUND ( 'NONE', #280, .T. ) ;
#43 = CARTESIAN_POINT ( 'NONE',  ( 0.000000000000000000, 0.000000000000000000, 3.200000000000008171 ) ) ;
#44 = ORIENTED_EDGE ( 'NONE', *, *, #303, .T. ) ;
#45 = CARTESIAN_POINT ( 'NONE',  ( -4.000000000000000000, 0.000000000000000000, 3.000000000000000000 ) ) ;
#46 = MANIFOLD_SOLID_BREP ( 'Zaoblit1', #35 ) ;
#47 = ORIENTED_EDGE ( 'NONE', *, *, #122, .T. ) ;
#48 = ORIENTED_EDGE ( 'NONE', *, *, #262, .T. ) ;
#49 = VERTEX_POINT ( 'NONE', #185 ) ;
#50 = DIRECTION ( 'NONE',  ( 0.000000000000000000, 0.000000000000000000, 1.000000000000000000 ) ) ;
#51 = AXIS2_PLACEMENT_3D ( 'NONE', #227, #160, #256 ) ;
#52 = ORIENTED_EDGE ( 'NONE', *, *, #79, .F. ) ;
#53 = AXIS2_PLACEMENT_3D ( 'NONE', #98, #59, #147 ) ;
#54 = CALENDAR_DATE ( 2022, 7, 7 ) ;
#55 = DIRECTION ( 'NONE',  ( 0.000000000000000000, 0.000000000000000000, 1.000000000000000000 ) ) ;
#56 = CARTESIAN_POINT ( 'NONE',  ( 2.300000000000000266, 0.000000000000000000, 3.200000000000008171 ) ) ;
#57 = CARTESIAN_POINT ( 'NONE',  ( -4.000000000000000000, 0.000000000000000000, 3.000000000000000000 ) ) ;
#58 = CARTESIAN_POINT ( 'NONE',  ( 0.000000000000000000, 0.000000000000000000, 203.0000000000000000 ) ) ;
#59 = DIRECTION ( 'NONE',  ( 0.000000000000000000, 0.000000000000000000, 1.000000000000000000 ) ) ;
#60 = DIRECTION ( 'NONE',  ( 1.000000000000000000, 0.000000000000000000, 0.000000000000000000 ) ) ;
#61 = DATE_AND_TIME ( #85, #190 ) ;
#62 = DIRECTION ( 'NONE',  ( 1.000000000000000000, 0.000000000000000000, 0.000000000000000000 ) ) ;
#63 = LINE ( 'NONE', #156, #118 ) ;
#64 = DIRECTION ( 'NONE',  ( -1.000000000000000000, 0.000000000000000000, 0.000000000000000000 ) ) ;
#65 = CARTESIAN_POINT ( 'NONE',  ( 0.000000000000000000, 0.000000000000000000, 3.200000000000008171 ) ) ;
#66 = EDGE_CURVE ( 'NONE', #2, #238, #102, .T. ) ;
#67 = ORIENTED_EDGE ( 'NONE', *, *, #303, .F. ) ;
#68 = FACE_OUTER_BOUND ( 'NONE', #273, .T. ) ;
#69 = ORIENTED_EDGE ( 'NONE', *, *, #296, .T. ) ;
#70 = APPROVAL_PERSON_ORGANIZATION ( #128, #153, #224 ) ;
#71 = EDGE_LOOP ( 'NONE', ( #286, #214, #121, #235 ) ) ;
#72 = CC_DESIGN_PERSON_AND_ORGANIZATION_ASSIGNMENT ( #228, #89, ( #272 ) ) ;
#73 = VECTOR ( 'NONE', #111, 1000.000000000000000 ) ;
#74 = AXIS2_PLACEMENT_3D ( 'NONE', #245, #55, #146 ) ;
#75 = EDGE_CURVE ( 'NONE', #180, #277, #94, .T. ) ;
#76 = LINE ( 'NONE', #226, #254 ) ;
#77 =( LENGTH_UNIT ( ) NAMED_UNIT ( * ) SI_UNIT ( .MILLI., .METRE. ) );
#78 = AXIS2_PLACEMENT_3D ( 'NONE', #173, #297, #37 ) ;
#79 = EDGE_CURVE ( 'NONE', #137, #49, #134, .T. ) ;
#80 = CIRCLE ( 'NONE', #74, 2.100000000000000089 ) ;
#81 = CARTESIAN_POINT ( 'NONE',  ( -2.300000000000000266, 2.816687638038912549E-16, 3.200000000000008171 ) ) ;
#82 = CARTESIAN_POINT ( 'NONE',  ( 0.000000000000000000, 0.000000000000000000, 3.000000000000000000 ) ) ;
#83 = MECHANICAL_CONTEXT ( 'NONE', #285, 'mechanical' ) ;
#84 = DIRECTION ( 'NONE',  ( -0.000000000000000000, -0.000000000000000000, -1.000000000000000000 ) ) ;
#85 = CALENDAR_DATE ( 2022, 7, 7 ) ;
#86 = FACE_OUTER_BOUND ( 'NONE', #90, .T. ) ;
#87 = CARTESIAN_POINT ( 'NONE',  ( -2.100000000000000089, 0.000000000000000000, 3.200000000000008171 ) ) ;
#88 = CARTESIAN_POINT ( 'NONE',  ( 4.000000000000000000, 4.898587196589412829E-16, 0.000000000000000000 ) ) ;
#89 = PERSON_AND_ORGANIZATION_ROLE ( 'design_supplier' ) ;
#90 = EDGE_LOOP ( 'NONE', ( #281, #69, #188, #140 ) ) ;
#91 = AXIS2_PLACEMENT_3D ( 'NONE', #56, #290, #295 ) ;
#92 = CARTESIAN_POINT ( 'NONE',  ( 4.000000000000000000, 4.898587196589412829E-16, 3.000000000000000000 ) ) ;
#93 = VERTEX_POINT ( 'NONE', #294 ) ;
#94 = CIRCLE ( 'NONE', #264, 2.100000000000000089 ) ;
#95 = CARTESIAN_POINT ( 'NONE',  ( 0.000000000000000000, 0.000000000000000000, 0.000000000000000000 ) ) ;
#96 = EDGE_CURVE ( 'NONE', #2, #162, #200, .T. ) ;
#97 = CIRCLE ( 'NONE', #51, 4.000000000000000000 ) ;
#98 = CARTESIAN_POINT ( 'NONE',  ( 0.000000000000000000, 0.000000000000000000, 203.0000000000000000 ) ) ;
#99 = DIRECTION ( 'NONE',  ( 0.000000000000000000, 0.000000000000000000, 1.000000000000000000 ) ) ;
#100 = ADVANCED_FACE ( 'NONE', ( #155 ), #113, .T. ) ;
#101 = DATE_AND_TIME ( #54, #218 ) ;
#102 = CIRCLE ( 'NONE', #108, 4.000000000000000000 ) ;
#103 = DIRECTION ( 'NONE',  ( -1.000000000000000000, 1.224646799147353207E-16, 0.000000000000000000 ) ) ;
#104 = DIRECTION ( 'NONE',  ( 0.000000000000000000, 0.000000000000000000, 1.000000000000000000 ) ) ;
#105 = CARTESIAN_POINT ( 'NONE',  ( 0.000000000000000000, 0.000000000000000000, 3.000000000000000000 ) ) ;
#106 = PERSON_AND_ORGANIZATION_ROLE ( 'classification_officer' ) ;
#107 = DIRECTION ( 'NONE',  ( 0.000000000000000000, 0.000000000000000000, 1.000000000000000000 ) ) ;
#108 = AXIS2_PLACEMENT_3D ( 'NONE', #105, #107, #62 ) ;
#109 = PRODUCT ( '8b1b', '8b1b', '', ( #83 ) ) ;
#110 = PERSON_AND_ORGANIZATION ( #144, #244 ) ;
#111 = DIRECTION ( 'NONE',  ( -0.000000000000000000, -0.000000000000000000, -1.000000000000000000 ) ) ;
#112 = APPROVAL_DATE_TIME ( #154, #241 ) ;
#113 = CYLINDRICAL_SURFACE ( 'NONE', #157, 2.100000000000000089 ) ;
#114 = ADVANCED_FACE ( 'NONE', ( #133, #42 ), #152, .T. ) ;
#115 = ORIENTED_EDGE ( 'NONE', *, *, #276, .T. ) ;
#116 = EDGE_LOOP ( 'NONE', ( #255, #1, #141, #209 ) ) ;
#117 = DIRECTION ( 'NONE',  ( 0.000000000000000000, 0.000000000000000000, 1.000000000000000000 ) ) ;
#118 = VECTOR ( 'NONE', #252, 1000.000000000000000 ) ;
#119 = SECURITY_CLASSIFICATION ( '', '', #208 ) ;
#120 = ORIENTED_EDGE ( 'NONE', *, *, #195, .T. ) ;
#121 = ORIENTED_EDGE ( 'NONE', *, *, #216, .T. ) ;
#122 = EDGE_CURVE ( 'NONE', #238, #2, #10, .T. ) ;
#123 = AXIS2_PLACEMENT_3D ( 'NONE', #278, #84, #249 ) ;
#124 = APPROVAL_PERSON_ORGANIZATION ( #172, #241, #11 ) ;
#125 = DATE_TIME_ROLE ( 'creation_date' ) ;
#126 = DIRECTION ( 'NONE',  ( 1.224646799147353207E-16, 1.000000000000000000, -0.000000000000000000 ) ) ;
#127 = CC_DESIGN_PERSON_AND_ORGANIZATION_ASSIGNMENT ( #301, #250, ( #272 ) ) ;
#128 = PERSON_AND_ORGANIZATION ( #144, #244 ) ;
#129 = APPROVAL_STATUS ( 'not_yet_approved' ) ;
#130 = CYLINDRICAL_SURFACE ( 'NONE', #271, 2.100000000000000089 ) ;
#131 = CARTESIAN_POINT ( 'NONE',  ( 2.100000000000000089, 2.571758278209441957E-16, 3.200000000000008171 ) ) ;
#132 = DIRECTION ( 'NONE',  ( 0.000000000000000000, 0.000000000000000000, 1.000000000000000000 ) ) ;
#133 = FACE_BOUND ( 'NONE', #23, .T. ) ;
#134 = CIRCLE ( 'NONE', #78, 2.100000000000000089 ) ;
#135 = DIRECTION ( 'NONE',  ( 1.000000000000000000, 0.000000000000000000, 0.000000000000000000 ) ) ;
#136 = ADVANCED_FACE ( 'NONE', ( #302 ), #130, .T. ) ;
#137 = VERTEX_POINT ( 'NONE', #233 ) ;
#138 = DIRECTION ( 'NONE',  ( 0.000000000000000000, 0.000000000000000000, 1.000000000000000000 ) ) ;
#139 = ADVANCED_FACE ( 'NONE', ( #86 ), #171, .F. ) ;
#140 = ORIENTED_EDGE ( 'NONE', *, *, #276, .F. ) ;
#141 = ORIENTED_EDGE ( 'NONE', *, *, #287, .T. ) ;
#142 = CC_DESIGN_SECURITY_CLASSIFICATION ( #119, ( #272 ) ) ;
#143 = PLANE ( 'NONE',  #230 ) ;
#144 = PERSON ( 'NEURÈENÝ', 'NEURÈENÝ', 'NEURÈENÝ', ('NEURÈENÝ'), ('NEURÈENÝ'), ('NEURÈENÝ') ) ;
#145 = AXIS2_PLACEMENT_3D ( 'NONE', #148, #99, #39 ) ;
#146 = DIRECTION ( 'NONE',  ( 1.000000000000000000, 0.000000000000000000, 0.000000000000000000 ) ) ;
#147 = DIRECTION ( 'NONE',  ( 1.000000000000000000, 0.000000000000000000, 0.000000000000000000 ) ) ;
#148 = CARTESIAN_POINT ( 'NONE',  ( 0.000000000000000000, 0.000000000000000000, 0.000000000000000000 ) ) ;
#149 = DIRECTION ( 'NONE',  ( -1.000000000000000000, 0.000000000000000000, 0.000000000000000000 ) ) ;
#150 = EDGE_CURVE ( 'NONE', #93, #184, #175, .T. ) ;
#151 = CIRCLE ( 'NONE', #213, 4.000000000000000000 ) ;
#152 = PLANE ( 'NONE',  #291 ) ;
#153 = APPROVAL ( #129, 'NEURÈENÝ' ) ;
#154 = DATE_AND_TIME ( #8, #7 ) ;
#155 = FACE_OUTER_BOUND ( 'NONE', #167, .T. ) ;
#156 = CARTESIAN_POINT ( 'NONE',  ( -2.100000000000000089, 0.000000000000000000, 203.0000000000000000 ) ) ;
#157 = AXIS2_PLACEMENT_3D ( 'NONE', #58, #299, #64 ) ;
#158 = PRODUCT_RELATED_PRODUCT_CATEGORY ( 'detail', '', ( #109 ) ) ;
#159 = ORIENTED_EDGE ( 'NONE', *, *, #296, .F. ) ;
#160 = DIRECTION ( 'NONE',  ( 0.000000000000000000, 0.000000000000000000, 1.000000000000000000 ) ) ;
#161 = APPROVAL_DATE_TIME ( #61, #217 ) ;
#162 = VERTEX_POINT ( 'NONE', #88 ) ;
#163 = EDGE_LOOP ( 'NONE', ( #206, #28 ) ) ;
#164 = ORIENTED_EDGE ( 'NONE', *, *, #195, .F. ) ;
#165 = DIRECTION ( 'NONE',  ( 1.000000000000000000, 0.000000000000000000, -0.000000000000000000 ) ) ;
#166 = AXIS2_PLACEMENT_3D ( 'NONE', #95, #307, #165 ) ;
#167 = EDGE_LOOP ( 'NONE', ( #67, #27, #48, #164 ) ) ;
#168 = DIRECTION ( 'NONE',  ( -0.000000000000000000, -0.000000000000000000, -1.000000000000000000 ) ) ;
#169 = DIRECTION ( 'NONE',  ( -0.000000000000000000, -0.000000000000000000, -1.000000000000000000 ) ) ;
#170 = PRODUCT_DEFINITION ( 'NEZNÁMÝ', '', #272, #31 ) ;
#171 = TOROIDAL_SURFACE ( 'NONE', #247, 2.300000000000000266, 0.2000000000000000111 ) ;
#172 = PERSON_AND_ORGANIZATION ( #144, #244 ) ;
#173 = CARTESIAN_POINT ( 'NONE',  ( 0.000000000000000000, 0.000000000000000000, 203.0000000000000000 ) ) ;
#174 = DIRECTION ( 'NONE',  ( 1.000000000000000000, 0.000000000000000000, 0.000000000000000000 ) ) ;
#175 = CIRCLE ( 'NONE', #219, 2.300000000000000266 ) ;
#176 = LOCAL_TIME ( 14, 49, 51.00000000000000000, #41 ) ;
#177 = CARTESIAN_POINT ( 'NONE',  ( 0.000000000000000000, 0.000000000000000000, 3.000000000000000000 ) ) ;
#178 = DATE_AND_TIME ( #201, #176 ) ;
#179 = CARTESIAN_POINT ( 'NONE',  ( -2.300000000000000266, 2.816687638038912549E-16, 3.000000000000004441 ) ) ;
#180 = VERTEX_POINT ( 'NONE', #87 ) ;
#181 = DIRECTION ( 'NONE',  ( 1.000000000000000000, 0.000000000000000000, 0.000000000000000000 ) ) ;
#182 = AXIS2_PLACEMENT_3D ( 'NONE', #231, #132, #229 ) ;
#183 = APPROVAL_STATUS ( 'not_yet_approved' ) ;
#184 = VERTEX_POINT ( 'NONE', #179 ) ;
#185 = CARTESIAN_POINT ( 'NONE',  ( 2.100000000000000089, 2.571758278209441957E-16, 203.0000000000000000 ) ) ;
#186 = FACE_OUTER_BOUND ( 'NONE', #163, .T. ) ;
#187 = ORIENTED_EDGE ( 'NONE', *, *, #66, .T. ) ;
#188 = ORIENTED_EDGE ( 'NONE', *, *, #150, .F. ) ;
#189 = EDGE_LOOP ( 'NONE', ( #283, #52, #120, #234 ) ) ;
#190 = LOCAL_TIME ( 14, 49, 51.00000000000000000, #232 ) ;
#191 = ADVANCED_FACE ( 'NONE', ( #275 ), #19, .T. ) ;
#192 = APPLICATION_PROTOCOL_DEFINITION ( 'international standard', 'config_control_design', 1994, #285 ) ;
#193 = APPROVAL_DATE_TIME ( #101, #153 ) ;
#194 = COORDINATED_UNIVERSAL_TIME_OFFSET ( 1, 0, .AHEAD. ) ;
#195 = EDGE_CURVE ( 'NONE', #137, #180, #63, .T. ) ;
#196 = APPLICATION_PROTOCOL_DEFINITION ( 'international standard', 'config_control_design', 1994, #300 ) ;
#197 = DIRECTION ( 'NONE',  ( -0.000000000000000000, -0.000000000000000000, -1.000000000000000000 ) ) ;
#198 = ADVANCED_BREP_SHAPE_REPRESENTATION ( '8b1b', ( #46, #145 ), #17 ) ;
#199 = PERSON_AND_ORGANIZATION_ROLE ( 'design_owner' ) ;
#200 = LINE ( 'NONE', #269, #73 ) ;
#201 = CALENDAR_DATE ( 2022, 7, 7 ) ;
#202 = CARTESIAN_POINT ( 'NONE',  ( 0.000000000000000000, 0.000000000000000000, 3.000000000000000000 ) ) ;
#203 = AXIS2_PLACEMENT_3D ( 'NONE', #22, #168, #261 ) ;
#204 = DIRECTION ( 'NONE',  ( 1.000000000000000000, 0.000000000000000000, 0.000000000000000000 ) ) ;
#205 = DATE_TIME_ROLE ( 'classification_date' ) ;
#206 = ORIENTED_EDGE ( 'NONE', *, *, #222, .F. ) ;
#207 = DIRECTION ( 'NONE',  ( -0.000000000000000000, -0.000000000000000000, -1.000000000000000000 ) ) ;
#208 = SECURITY_CLASSIFICATION_LEVEL ( 'unclassified' ) ;
#209 = ORIENTED_EDGE ( 'NONE', *, *, #222, .T. ) ;
#210 = EDGE_CURVE ( 'NONE', #184, #93, #288, .T. ) ;
#211 = VERTEX_POINT ( 'NONE', #270 ) ;
#212 = DIRECTION ( 'NONE',  ( 1.000000000000000000, 0.000000000000000000, -0.000000000000000000 ) ) ;
#213 = AXIS2_PLACEMENT_3D ( 'NONE', #40, #305, #181 ) ;
#214 = ORIENTED_EDGE ( 'NONE', *, *, #96, .T. ) ;
#215 = CARTESIAN_POINT ( 'NONE',  ( 0.000000000000000000, 0.000000000000000000, 203.0000000000000000 ) ) ;
#216 = EDGE_CURVE ( 'NONE', #162, #211, #151, .T. ) ;
#217 = APPROVAL ( #183, 'NEURÈENÝ' ) ;
#218 = LOCAL_TIME ( 14, 49, 51.00000000000000000, #268 ) ;
#219 = AXIS2_PLACEMENT_3D ( 'NONE', #177, #197, #204 ) ;
#220 = VECTOR ( 'NONE', #6, 1000.000000000000000 ) ;
#221 = APPROVAL_STATUS ( 'not_yet_approved' ) ;
#222 = EDGE_CURVE ( 'NONE', #211, #162, #97, .T. ) ;
#223 = UNCERTAINTY_MEASURE_WITH_UNIT (LENGTH_MEASURE( 1.000000000000000082E-05 ), #77, 'distance_accuracy_value', 'NONE');
#224 = APPROVAL_ROLE ( '' ) ;
#225 = APPROVAL_PERSON_ORGANIZATION ( #298, #217, #304 ) ;
#226 = CARTESIAN_POINT ( 'NONE',  ( 2.100000000000000089, 2.571758278209441957E-16, 203.0000000000000000 ) ) ;
#227 = CARTESIAN_POINT ( 'NONE',  ( 0.000000000000000000, 0.000000000000000000, 0.000000000000000000 ) ) ;
#228 = PERSON_AND_ORGANIZATION ( #144, #244 ) ;
#229 = DIRECTION ( 'NONE',  ( 1.000000000000000000, 0.000000000000000000, 0.000000000000000000 ) ) ;
#230 = AXIS2_PLACEMENT_3D ( 'NONE', #215, #117, #212 ) ;
#231 = CARTESIAN_POINT ( 'NONE',  ( 0.000000000000000000, 0.000000000000000000, 3.000000000000000000 ) ) ;
#232 = COORDINATED_UNIVERSAL_TIME_OFFSET ( 1, 0, .AHEAD. ) ;
#233 = CARTESIAN_POINT ( 'NONE',  ( -2.100000000000000089, 0.000000000000000000, 203.0000000000000000 ) ) ;
#234 = ORIENTED_EDGE ( 'NONE', *, *, #75, .T. ) ;
#235 = ORIENTED_EDGE ( 'NONE', *, *, #287, .F. ) ;
#236 = ORIENTED_EDGE ( 'NONE', *, *, #150, .T. ) ;
#237 = LOCAL_TIME ( 14, 49, 51.00000000000000000, #194 ) ;
#238 = VERTEX_POINT ( 'NONE', #45 ) ;
#239 = CC_DESIGN_PERSON_AND_ORGANIZATION_ASSIGNMENT ( #265, #199, ( #109 ) ) ;
#240 = EDGE_CURVE ( 'NONE', #49, #277, #76, .T. ) ;
#241 = APPROVAL ( #221, 'NEURÈENÝ' ) ;
#242 = AXIS2_PLACEMENT_3D ( 'NONE', #65, #50, #174 ) ;
#243 = PERSON_AND_ORGANIZATION ( #144, #244 ) ;
#244 = ORGANIZATION ( 'NEURÈENÝ', 'NEURÈENÝ', '' ) ;
#245 = CARTESIAN_POINT ( 'NONE',  ( 0.000000000000000000, 0.000000000000000000, 3.200000000000008171 ) ) ;
#246 = DIRECTION ( 'NONE',  ( 0.000000000000000000, 0.000000000000000000, 1.000000000000000000 ) ) ;
#247 = AXIS2_PLACEMENT_3D ( 'NONE', #43, #246, #135 ) ;
#248 = CC_DESIGN_APPROVAL ( #241, ( #272 ) ) ;
#249 = DIRECTION ( 'NONE',  ( -1.000000000000000000, 0.000000000000000000, 0.000000000000000000 ) ) ;
#250 = PERSON_AND_ORGANIZATION_ROLE ( 'creator' ) ;
#251 = DIRECTION ( 'NONE',  ( 1.000000000000000000, 0.000000000000000000, -0.000000000000000000 ) ) ;
#252 = DIRECTION ( 'NONE',  ( -0.000000000000000000, -0.000000000000000000, -1.000000000000000000 ) ) ;
#253 = AXIS2_PLACEMENT_3D ( 'NONE', #82, #207, #13 ) ;
#254 = VECTOR ( 'NONE', #169, 1000.000000000000000 ) ;
#255 = ORIENTED_EDGE ( 'NONE', *, *, #96, .F. ) ;
#256 = DIRECTION ( 'NONE',  ( 1.000000000000000000, 0.000000000000000000, 0.000000000000000000 ) ) ;
#257 = ORIENTED_EDGE ( 'NONE', *, *, #210, .T. ) ;
#258 = ORIENTED_EDGE ( 'NONE', *, *, #79, .T. ) ;
#259 = CYLINDRICAL_SURFACE ( 'NONE', #203, 4.000000000000000000 ) ;
#260 = EDGE_LOOP ( 'NONE', ( #258, #44 ) ) ;
#261 = DIRECTION ( 'NONE',  ( -1.000000000000000000, 0.000000000000000000, 0.000000000000000000 ) ) ;
#262 = EDGE_CURVE ( 'NONE', #277, #180, #80, .T. ) ;
#263 = CIRCLE ( 'NONE', #289, 0.2000000000000000944 ) ;
#264 = AXIS2_PLACEMENT_3D ( 'NONE', #274, #138, #60 ) ;
#265 = PERSON_AND_ORGANIZATION ( #144, #244 ) ;
#266 = CC_DESIGN_DATE_AND_TIME_ASSIGNMENT ( #178, #205, ( #119 ) ) ;
#267 = CALENDAR_DATE ( 2022, 7, 7 ) ;
#268 = COORDINATED_UNIVERSAL_TIME_OFFSET ( 1, 0, .AHEAD. ) ;
#269 = CARTESIAN_POINT ( 'NONE',  ( 4.000000000000000000, 4.898587196589412829E-16, 3.000000000000000000 ) ) ;
#270 = CARTESIAN_POINT ( 'NONE',  ( -4.000000000000000000, 0.000000000000000000, 0.000000000000000000 ) ) ;
#271 = AXIS2_PLACEMENT_3D ( 'NONE', #15, #14, #149 ) ;
#272 = PRODUCT_DEFINITION_FORMATION_WITH_SPECIFIED_SOURCE ( 'LIBOVOLNÝ', '', #109, .NOT_KNOWN. ) ;
#273 = EDGE_LOOP ( 'NONE', ( #159, #24, #115, #18 ) ) ;
#274 = CARTESIAN_POINT ( 'NONE',  ( 0.000000000000000000, 0.000000000000000000, 3.200000000000008171 ) ) ;
#275 = FACE_OUTER_BOUND ( 'NONE', #71, .T. ) ;
#276 = EDGE_CURVE ( 'NONE', #277, #93, #12, .T. ) ;
#277 = VERTEX_POINT ( 'NONE', #131 ) ;
#278 = CARTESIAN_POINT ( 'NONE',  ( 0.000000000000000000, 0.000000000000000000, 3.000000000000000000 ) ) ;
#279 = CC_DESIGN_APPROVAL ( #153, ( #170 ) ) ;
#280 = EDGE_LOOP ( 'NONE', ( #47, #187 ) ) ;
#281 = ORIENTED_EDGE ( 'NONE', *, *, #75, .F. ) ;
#282 = FACE_OUTER_BOUND ( 'NONE', #116, .T. ) ;
#283 = ORIENTED_EDGE ( 'NONE', *, *, #240, .F. ) ;
#284 = FACE_OUTER_BOUND ( 'NONE', #260, .T. ) ;
#285 = APPLICATION_CONTEXT ( 'configuration controlled 3d designs of mechanical parts and assemblies' ) ;
#286 = ORIENTED_EDGE ( 'NONE', *, *, #66, .F. ) ;
#287 = EDGE_CURVE ( 'NONE', #238, #211, #34, .T. ) ;
#288 = CIRCLE ( 'NONE', #253, 2.300000000000000266 ) ;
#289 = AXIS2_PLACEMENT_3D ( 'NONE', #81, #126, #103 ) ;
#290 = DIRECTION ( 'NONE',  ( 0.000000000000000000, -1.000000000000000000, 0.000000000000000000 ) ) ;
#291 = AXIS2_PLACEMENT_3D ( 'NONE', #202, #104, #251 ) ;
#292 =( NAMED_UNIT ( * ) SI_UNIT ( $, .STERADIAN. ) SOLID_ANGLE_UNIT ( ) );
#293 = COORDINATED_UNIVERSAL_TIME_OFFSET ( 1, 0, .AHEAD. ) ;
#294 = CARTESIAN_POINT ( 'NONE',  ( 2.300000000000000266, 0.000000000000000000, 3.000000000000004441 ) ) ;
#295 = DIRECTION ( 'NONE',  ( 0.000000000000000000, 0.000000000000000000, -1.000000000000000000 ) ) ;
#296 = EDGE_CURVE ( 'NONE', #180, #184, #263, .T. ) ;
#297 = DIRECTION ( 'NONE',  ( 0.000000000000000000, 0.000000000000000000, 1.000000000000000000 ) ) ;
#298 = PERSON_AND_ORGANIZATION ( #144, #244 ) ;
#299 = DIRECTION ( 'NONE',  ( -0.000000000000000000, -0.000000000000000000, -1.000000000000000000 ) ) ;
#300 = APPLICATION_CONTEXT ( 'configuration controlled 3d designs of mechanical parts and assemblies' ) ;
#301 = PERSON_AND_ORGANIZATION ( #144, #244 ) ;
#302 = FACE_OUTER_BOUND ( 'NONE', #189, .T. ) ;
#303 = EDGE_CURVE ( 'NONE', #49, #137, #38, .T. ) ;
#304 = APPROVAL_ROLE ( '' ) ;
#305 = DIRECTION ( 'NONE',  ( 0.000000000000000000, 0.000000000000000000, 1.000000000000000000 ) ) ;
#306 = CC_DESIGN_DATE_AND_TIME_ASSIGNMENT ( #33, #125, ( #170 ) ) ;
#307 = DIRECTION ( 'NONE',  ( 0.000000000000000000, 0.000000000000000000, 1.000000000000000000 ) ) ;
ENDSEC;
END-ISO-10303-21;
