ISO-10303-21;
HEADER;
FILE_DESCRIPTION (( 'STEP AP203' ),
    '1' );
FILE_NAME ('ab11.STEP',
    '2022-07-07T12:42:48',
    ( '' ),
    ( '' ),
    'SwSTEP 2.0',
    'SolidWorks 2019',
    '' );
FILE_SCHEMA (( 'CONFIG_CONTROL_DESIGN' ));
ENDSEC;

DATA;
#1 = APPROVAL_PERSON_ORGANIZATION ( #166, #131, #124 ) ;
#2 = PERSON_AND_ORGANIZATION ( #236, #78 ) ;
#3 = DATE_AND_TIME ( #220, #273 ) ;
#4 = PRODUCT_DEFINITION ( 'NEZNÁMÝ', '', #129, #227 ) ;
#5 = CARTESIAN_POINT ( 'NONE',  ( -3.200000000000000622, 3.918869757271530953E-16, 5.199999999999996625 ) ) ;
#6 = ORIENTED_EDGE ( 'NONE', *, *, #56, .T. ) ;
#7 = AXIS2_PLACEMENT_3D ( 'NONE', #118, #214, #189 ) ;
#8 = ORIENTED_EDGE ( 'NONE', *, *, #211, .T. ) ;
#9 = DIRECTION ( 'NONE',  ( 1.224646799147353207E-16, 1.000000000000000000, -0.000000000000000000 ) ) ;
#10 = EDGE_CURVE ( 'NONE', #80, #38, #219, .T. ) ;
#11 = AXIS2_PLACEMENT_3D ( 'NONE', #182, #232, #238 ) ;
#12 = ORIENTED_EDGE ( 'NONE', *, *, #19, .F. ) ;
#13 = EDGE_LOOP ( 'NONE', ( #12, #157, #6, #177 ) ) ;
#14 = EDGE_LOOP ( 'NONE', ( #253, #178 ) ) ;
#15 = CARTESIAN_POINT ( 'NONE',  ( 0.000000000000000000, 0.000000000000000000, 5.199999999999996625 ) ) ;
#16 = CIRCLE ( 'NONE', #252, 3.000000000000000444 ) ;
#17 = VERTEX_POINT ( 'NONE', #247 ) ;
#18 = DIRECTION ( 'NONE',  ( -1.000000000000000000, 0.000000000000000000, 0.000000000000000000 ) ) ;
#19 = EDGE_CURVE ( 'NONE', #181, #80, #130, .T. ) ;
#20 = CARTESIAN_POINT ( 'NONE',  ( 0.000000000000000000, 0.000000000000000000, 105.0000000000000142 ) ) ;
#21 = PLANE ( 'NONE',  #7 ) ;
#22 = FACE_OUTER_BOUND ( 'NONE', #14, .T. ) ;
#23 = CALENDAR_DATE ( 2022, 7, 7 ) ;
#24 = PRODUCT_DEFINITION_SHAPE ( 'NONE', 'NONE',  #4 ) ;
#25 = PERSON_AND_ORGANIZATION_ROLE ( 'creator' ) ;
#26 = COORDINATED_UNIVERSAL_TIME_OFFSET ( 1, 0, .AHEAD. ) ;
#27 = DIRECTION ( 'NONE',  ( 0.000000000000000000, 0.000000000000000000, 1.000000000000000000 ) ) ;
#28 = APPLICATION_CONTEXT ( 'configuration controlled 3d designs of mechanical parts and assemblies' ) ;
#29 = APPROVAL_DATE_TIME ( #287, #131 ) ;
#30 = COORDINATED_UNIVERSAL_TIME_OFFSET ( 1, 0, .AHEAD. ) ;
#31 = CARTESIAN_POINT ( 'NONE',  ( 3.000000000000000444, 3.673940397442060361E-16, 105.0000000000000142 ) ) ;
#32 = CARTESIAN_POINT ( 'NONE',  ( 0.000000000000000000, 0.000000000000000000, 5.000000000000000000 ) ) ;
#33 = DIRECTION ( 'NONE',  ( -0.000000000000000000, -0.000000000000000000, -1.000000000000000000 ) ) ;
#34 = EDGE_CURVE ( 'NONE', #293, #279, #65, .T. ) ;
#35 = VERTEX_POINT ( 'NONE', #57 ) ;
#36 = ADVANCED_BREP_SHAPE_REPRESENTATION ( 'ab11', ( #102, #213 ), #192 ) ;
#37 = AXIS2_PLACEMENT_3D ( 'NONE', #294, #175, #224 ) ;
#38 = VERTEX_POINT ( 'NONE', #195 ) ;
#39 = DIRECTION ( 'NONE',  ( 1.000000000000000000, 0.000000000000000000, 0.000000000000000000 ) ) ;
#40 = CLOSED_SHELL ( 'NONE', ( #71, #96, #161, #241, #274, #307, #156, #84, #194 ) ) ;
#41 = VECTOR ( 'NONE', #50, 1000.000000000000000 ) ;
#42 = EDGE_CURVE ( 'NONE', #17, #181, #199, .T. ) ;
#43 = DIRECTION ( 'NONE',  ( -1.000000000000000000, 0.000000000000000000, 0.000000000000000000 ) ) ;
#44 = CYLINDRICAL_SURFACE ( 'NONE', #11, 3.000000000000000444 ) ;
#45 = CARTESIAN_POINT ( 'NONE',  ( 3.200000000000000622, 0.000000000000000000, 5.199999999999996625 ) ) ;
#46 = CIRCLE ( 'NONE', #155, 3.000000000000000444 ) ;
#47 = DIRECTION ( 'NONE',  ( 0.000000000000000000, 0.000000000000000000, 1.000000000000000000 ) ) ;
#48 = COORDINATED_UNIVERSAL_TIME_OFFSET ( 1, 0, .AHEAD. ) ;
#49 = APPROVAL_STATUS ( 'not_yet_approved' ) ;
#50 = DIRECTION ( 'NONE',  ( -0.000000000000000000, -0.000000000000000000, -1.000000000000000000 ) ) ;
#51 = VECTOR ( 'NONE', #163, 1000.000000000000000 ) ;
#52 = PERSON_AND_ORGANIZATION ( #236, #78 ) ;
#53 = DIRECTION ( 'NONE',  ( -0.000000000000000000, -0.000000000000000000, -1.000000000000000000 ) ) ;
#54 = DIRECTION ( 'NONE',  ( -1.000000000000000000, 1.224646799147353207E-16, 0.000000000000000000 ) ) ;
#55 = CALENDAR_DATE ( 2022, 7, 7 ) ;
#56 = EDGE_CURVE ( 'NONE', #17, #38, #271, .T. ) ;
#57 = CARTESIAN_POINT ( 'NONE',  ( 3.000000000000000444, 3.673940397442060361E-16, 105.0000000000000142 ) ) ;
#58 = ORIENTED_EDGE ( 'NONE', *, *, #19, .T. ) ;
#59 = ORIENTED_EDGE ( 'NONE', *, *, #132, .T. ) ;
#60 = CC_DESIGN_PERSON_AND_ORGANIZATION_ASSIGNMENT ( #52, #196, ( #129 ) ) ;
#61 = CARTESIAN_POINT ( 'NONE',  ( -3.000000000000000444, 0.000000000000000000, 105.0000000000000142 ) ) ;
#62 = EDGE_CURVE ( 'NONE', #279, #231, #282, .T. ) ;
#63 = ORIENTED_EDGE ( 'NONE', *, *, #302, .T. ) ;
#64 = CARTESIAN_POINT ( 'NONE',  ( -3.000000000000000444, 0.000000000000000000, 5.199999999999996625 ) ) ;
#65 = CIRCLE ( 'NONE', #88, 0.2000000000000000944 ) ;
#66 = AXIS2_PLACEMENT_3D ( 'NONE', #67, #237, #280 ) ;
#67 = CARTESIAN_POINT ( 'NONE',  ( 0.000000000000000000, 0.000000000000000000, 0.000000000000000000 ) ) ;
#68 = DIRECTION ( 'NONE',  ( 1.000000000000000000, 0.000000000000000000, 0.000000000000000000 ) ) ;
#69 = CYLINDRICAL_SURFACE ( 'NONE', #186, 6.000000000000000888 ) ;
#70 = CALENDAR_DATE ( 2022, 7, 7 ) ;
#71 = ADVANCED_FACE ( 'NONE', ( #245 ), #171, .F. ) ;
#72 = ORIENTED_EDGE ( 'NONE', *, *, #221, .F. ) ;
#73 = DIRECTION ( 'NONE',  ( -0.000000000000000000, -0.000000000000000000, -1.000000000000000000 ) ) ;
#74 = SECURITY_CLASSIFICATION ( '', '', #290 ) ;
#75 = ORIENTED_EDGE ( 'NONE', *, *, #62, .F. ) ;
#76 = EDGE_LOOP ( 'NONE', ( #205, #278, #230, #133 ) ) ;
#77 = CARTESIAN_POINT ( 'NONE',  ( 0.000000000000000000, 0.000000000000000000, 0.000000000000000000 ) ) ;
#78 = ORGANIZATION ( 'NEURÈENÝ', 'NEURÈENÝ', '' ) ;
#79 = ORIENTED_EDGE ( 'NONE', *, *, #10, .T. ) ;
#80 = VERTEX_POINT ( 'NONE', #249 ) ;
#81 = ORIENTED_EDGE ( 'NONE', *, *, #121, .F. ) ;
#82 = APPROVAL ( #49, 'NEURÈENÝ' ) ;
#83 = LOCAL_TIME ( 14, 42, 48.00000000000000000, #95 ) ;
#84 = ADVANCED_FACE ( 'NONE', ( #128 ), #202, .T. ) ;
#85 = DIRECTION ( 'NONE',  ( 0.000000000000000000, 0.000000000000000000, -1.000000000000000000 ) ) ;
#86 = DIRECTION ( 'NONE',  ( 1.000000000000000000, 0.000000000000000000, 0.000000000000000000 ) ) ;
#87 = FACE_OUTER_BOUND ( 'NONE', #299, .T. ) ;
#88 = AXIS2_PLACEMENT_3D ( 'NONE', #5, #9, #54 ) ;
#89 = TOROIDAL_SURFACE ( 'NONE', #172, 3.200000000000000622, 0.2000000000000000111 ) ;
#90 = APPROVAL ( #147, 'NEURÈENÝ' ) ;
#91 = CARTESIAN_POINT ( 'NONE',  ( 0.000000000000000000, 0.000000000000000000, 105.0000000000000142 ) ) ;
#92 = PLANE ( 'NONE',  #268 ) ;
#93 = CARTESIAN_POINT ( 'NONE',  ( 0.000000000000000000, 0.000000000000000000, 0.000000000000000000 ) ) ;
#94 = AXIS2_PLACEMENT_3D ( 'NONE', #141, #47, #215 ) ;
#95 = COORDINATED_UNIVERSAL_TIME_OFFSET ( 1, 0, .AHEAD. ) ;
#96 = ADVANCED_FACE ( 'NONE', ( #295 ), #200, .T. ) ;
#97 = DIRECTION ( 'NONE',  ( 1.000000000000000000, 0.000000000000000000, 0.000000000000000000 ) ) ;
#98 = PERSON_AND_ORGANIZATION ( #236, #78 ) ;
#99 = DIRECTION ( 'NONE',  ( 1.000000000000000000, 0.000000000000000000, 0.000000000000000000 ) ) ;
#100 = DATE_TIME_ROLE ( 'classification_date' ) ;
#101 = COORDINATED_UNIVERSAL_TIME_OFFSET ( 1, 0, .AHEAD. ) ;
#102 = MANIFOLD_SOLID_BREP ( 'Zaoblit1', #40 ) ;
#103 = CARTESIAN_POINT ( 'NONE',  ( 6.000000000000000888, 7.347880794884120722E-16, 5.000000000000000000 ) ) ;
#104 = CARTESIAN_POINT ( 'NONE',  ( -3.000000000000000444, 0.000000000000000000, 105.0000000000000142 ) ) ;
#105 = DIRECTION ( 'NONE',  ( 1.000000000000000000, 0.000000000000000000, 0.000000000000000000 ) ) ;
#106 = CC_DESIGN_PERSON_AND_ORGANIZATION_ASSIGNMENT ( #288, #223, ( #217 ) ) ;
#107 = VECTOR ( 'NONE', #33, 1000.000000000000000 ) ;
#108 = CC_DESIGN_APPROVAL ( #131, ( #74 ) ) ;
#109 = ORIENTED_EDGE ( 'NONE', *, *, #296, .T. ) ;
#110 = ORIENTED_EDGE ( 'NONE', *, *, #263, .F. ) ;
#111 = EDGE_LOOP ( 'NONE', ( #300, #148 ) ) ;
#112 = FACE_OUTER_BOUND ( 'NONE', #275, .T. ) ;
#113 = CIRCLE ( 'NONE', #298, 0.1999999999999996503 ) ;
#114 = ORIENTED_EDGE ( 'NONE', *, *, #296, .F. ) ;
#115 = FACE_OUTER_BOUND ( 'NONE', #13, .T. ) ;
#116 = DIRECTION ( 'NONE',  ( -0.000000000000000000, -0.000000000000000000, -1.000000000000000000 ) ) ;
#117 = CC_DESIGN_DATE_AND_TIME_ASSIGNMENT ( #168, #242, ( #4 ) ) ;
#118 = CARTESIAN_POINT ( 'NONE',  ( 0.000000000000000000, 0.000000000000000000, 5.000000000000000000 ) ) ;
#119 = CC_DESIGN_SECURITY_CLASSIFICATION ( #74, ( #129 ) ) ;
#120 = DIRECTION ( 'NONE',  ( 0.000000000000000000, -1.000000000000000000, 0.000000000000000000 ) ) ;
#121 = EDGE_CURVE ( 'NONE', #35, #159, #289, .T. ) ;
#122 = DIRECTION ( 'NONE',  ( 1.000000000000000000, 0.000000000000000000, 0.000000000000000000 ) ) ;
#123 = AXIS2_PLACEMENT_3D ( 'NONE', #77, #153, #97 ) ;
#124 = APPROVAL_ROLE ( '' ) ;
#125 = APPROVAL_DATE_TIME ( #240, #90 ) ;
#126 = APPROVAL_STATUS ( 'not_yet_approved' ) ;
#127 = VERTEX_POINT ( 'NONE', #104 ) ;
#128 = FACE_OUTER_BOUND ( 'NONE', #207, .T. ) ;
#129 = PRODUCT_DEFINITION_FORMATION_WITH_SPECIFIED_SOURCE ( 'LIBOVOLNÝ', '', #217, .NOT_KNOWN. ) ;
#130 = LINE ( 'NONE', #103, #203 ) ;
#131 = APPROVAL ( #126, 'NEURÈENÝ' ) ;
#132 = EDGE_CURVE ( 'NONE', #293, #159, #229, .T. ) ;
#133 = ORIENTED_EDGE ( 'NONE', *, *, #302, .F. ) ;
#134 = ORIENTED_EDGE ( 'NONE', *, *, #211, .F. ) ;
#135 = CC_DESIGN_DATE_AND_TIME_ASSIGNMENT ( #150, #100, ( #74 ) ) ;
#136 = ORIENTED_EDGE ( 'NONE', *, *, #255, .F. ) ;
#137 = EDGE_LOOP ( 'NONE', ( #81, #134, #281, #59 ) ) ;
#138 =( LENGTH_UNIT ( ) NAMED_UNIT ( * ) SI_UNIT ( .MILLI., .METRE. ) );
#139 = CC_DESIGN_APPROVAL ( #82, ( #129 ) ) ;
#140 = DIRECTION ( 'NONE',  ( 1.000000000000000000, 0.000000000000000000, 0.000000000000000000 ) ) ;
#141 = CARTESIAN_POINT ( 'NONE',  ( 0.000000000000000000, 0.000000000000000000, 5.000000000000000000 ) ) ;
#142 = DIRECTION ( 'NONE',  ( -0.000000000000000000, -0.000000000000000000, -1.000000000000000000 ) ) ;
#143 = AXIS2_PLACEMENT_3D ( 'NONE', #20, #212, #39 ) ;
#144 = CC_DESIGN_PERSON_AND_ORGANIZATION_ASSIGNMENT ( #98, #292, ( #129 ) ) ;
#145 = PERSON_AND_ORGANIZATION ( #236, #78 ) ;
#146 = SHAPE_DEFINITION_REPRESENTATION ( #24, #36 ) ;
#147 = APPROVAL_STATUS ( 'not_yet_approved' ) ;
#148 = ORIENTED_EDGE ( 'NONE', *, *, #62, .T. ) ;
#149 = EDGE_CURVE ( 'NONE', #231, #279, #286, .T. ) ;
#150 = DATE_AND_TIME ( #23, #176 ) ;
#151 = PERSON_AND_ORGANIZATION ( #236, #78 ) ;
#152 = CARTESIAN_POINT ( 'NONE',  ( 0.000000000000000000, 0.000000000000000000, 105.0000000000000142 ) ) ;
#153 = DIRECTION ( 'NONE',  ( 0.000000000000000000, 0.000000000000000000, 1.000000000000000000 ) ) ;
#154 = CARTESIAN_POINT ( 'NONE',  ( 0.000000000000000000, 0.000000000000000000, 5.000000000000000000 ) ) ;
#155 = AXIS2_PLACEMENT_3D ( 'NONE', #162, #303, #86 ) ;
#156 = ADVANCED_FACE ( 'NONE', ( #187 ), #44, .T. ) ;
#157 = ORIENTED_EDGE ( 'NONE', *, *, #42, .F. ) ;
#158 = CC_DESIGN_PERSON_AND_ORGANIZATION_ASSIGNMENT ( #151, #246, ( #74 ) ) ;
#159 = VERTEX_POINT ( 'NONE', #235 ) ;
#160 = CARTESIAN_POINT ( 'NONE',  ( 0.000000000000000000, 0.000000000000000000, 5.000000000000000000 ) ) ;
#161 = ADVANCED_FACE ( 'NONE', ( #87 ), #69, .T. ) ;
#162 = CARTESIAN_POINT ( 'NONE',  ( 0.000000000000000000, 0.000000000000000000, 5.199999999999996625 ) ) ;
#163 = DIRECTION ( 'NONE',  ( -0.000000000000000000, -0.000000000000000000, -1.000000000000000000 ) ) ;
#164 = DIRECTION ( 'NONE',  ( 0.000000000000000000, 0.000000000000000000, 1.000000000000000000 ) ) ;
#165 = APPROVAL_PERSON_ORGANIZATION ( #264, #82, #267 ) ;
#166 = PERSON_AND_ORGANIZATION ( #236, #78 ) ;
#167 = MECHANICAL_CONTEXT ( 'NONE', #28, 'mechanical' ) ;
#168 = DATE_AND_TIME ( #70, #83 ) ;
#169 = DIRECTION ( 'NONE',  ( 1.000000000000000000, 0.000000000000000000, 0.000000000000000000 ) ) ;
#170 = APPLICATION_PROTOCOL_DEFINITION ( 'international standard', 'config_control_design', 1994, #28 ) ;
#171 = TOROIDAL_SURFACE ( 'NONE', #37, 3.200000000000000622, 0.2000000000000000111 ) ;
#172 = AXIS2_PLACEMENT_3D ( 'NONE', #15, #164, #140 ) ;
#173 = DIRECTION ( 'NONE',  ( 1.000000000000000000, 0.000000000000000000, 0.000000000000000000 ) ) ;
#174 = DIRECTION ( 'NONE',  ( -0.000000000000000000, -0.000000000000000000, -1.000000000000000000 ) ) ;
#175 = DIRECTION ( 'NONE',  ( 0.000000000000000000, 0.000000000000000000, 1.000000000000000000 ) ) ;
#176 = LOCAL_TIME ( 14, 42, 48.00000000000000000, #30 ) ;
#177 = ORIENTED_EDGE ( 'NONE', *, *, #263, .T. ) ;
#178 = ORIENTED_EDGE ( 'NONE', *, *, #185, .T. ) ;
#179 = ORIENTED_EDGE ( 'NONE', *, *, #185, .F. ) ;
#180 = CIRCLE ( 'NONE', #143, 3.000000000000000444 ) ;
#181 = VERTEX_POINT ( 'NONE', #261 ) ;
#182 = CARTESIAN_POINT ( 'NONE',  ( 0.000000000000000000, 0.000000000000000000, 105.0000000000000142 ) ) ;
#183 = ORIENTED_EDGE ( 'NONE', *, *, #10, .F. ) ;
#184 =( NAMED_UNIT ( * ) PLANE_ANGLE_UNIT ( ) SI_UNIT ( $, .RADIAN. ) );
#185 = EDGE_CURVE ( 'NONE', #181, #17, #188, .T. ) ;
#186 = AXIS2_PLACEMENT_3D ( 'NONE', #160, #142, #18 ) ;
#187 = FACE_OUTER_BOUND ( 'NONE', #137, .T. ) ;
#188 = CIRCLE ( 'NONE', #94, 6.000000000000000888 ) ;
#189 = DIRECTION ( 'NONE',  ( 1.000000000000000000, 0.000000000000000000, -0.000000000000000000 ) ) ;
#190 = CARTESIAN_POINT ( 'NONE',  ( 0.000000000000000000, 0.000000000000000000, 0.000000000000000000 ) ) ;
#191 = DIRECTION ( 'NONE',  ( 0.000000000000000000, 0.000000000000000000, 1.000000000000000000 ) ) ;
#192 =( GEOMETRIC_REPRESENTATION_CONTEXT ( 3 ) GLOBAL_UNCERTAINTY_ASSIGNED_CONTEXT ( ( #250 ) ) GLOBAL_UNIT_ASSIGNED_CONTEXT ( ( #138, #184, #262 ) ) REPRESENTATION_CONTEXT ( 'NONE', 'WORKASPACE' ) );
#193 = CALENDAR_DATE ( 2022, 7, 7 ) ;
#194 = ADVANCED_FACE ( 'NONE', ( #258 ), #89, .F. ) ;
#195 = CARTESIAN_POINT ( 'NONE',  ( -6.000000000000000888, 0.000000000000000000, 0.000000000000000000 ) ) ;
#196 = PERSON_AND_ORGANIZATION_ROLE ( 'design_supplier' ) ;
#197 = CARTESIAN_POINT ( 'NONE',  ( 0.000000000000000000, 0.000000000000000000, 5.000000000000000000 ) ) ;
#198 = APPROVAL_DATE_TIME ( #3, #82 ) ;
#199 = CIRCLE ( 'NONE', #243, 6.000000000000000888 ) ;
#200 = CYLINDRICAL_SURFACE ( 'NONE', #304, 3.000000000000000444 ) ;
#201 = DIRECTION ( 'NONE',  ( 1.000000000000000000, 0.000000000000000000, -0.000000000000000000 ) ) ;
#202 = PLANE ( 'NONE',  #251 ) ;
#203 = VECTOR ( 'NONE', #174, 1000.000000000000000 ) ;
#204 = AXIS2_PLACEMENT_3D ( 'NONE', #197, #73, #173 ) ;
#205 = ORIENTED_EDGE ( 'NONE', *, *, #132, .F. ) ;
#206 = APPLICATION_CONTEXT ( 'configuration controlled 3d designs of mechanical parts and assemblies' ) ;
#207 = EDGE_LOOP ( 'NONE', ( #8, #109 ) ) ;
#208 = AXIS2_PLACEMENT_3D ( 'NONE', #291, #272, #99 ) ;
#209 = DIRECTION ( 'NONE',  ( 1.000000000000000000, 0.000000000000000000, -0.000000000000000000 ) ) ;
#210 = EDGE_LOOP ( 'NONE', ( #228, #72, #63, #75 ) ) ;
#211 = EDGE_CURVE ( 'NONE', #127, #35, #180, .T. ) ;
#212 = DIRECTION ( 'NONE',  ( 0.000000000000000000, 0.000000000000000000, 1.000000000000000000 ) ) ;
#213 = AXIS2_PLACEMENT_3D ( 'NONE', #93, #191, #122 ) ;
#214 = DIRECTION ( 'NONE',  ( 0.000000000000000000, 0.000000000000000000, 1.000000000000000000 ) ) ;
#215 = DIRECTION ( 'NONE',  ( 1.000000000000000000, 0.000000000000000000, 0.000000000000000000 ) ) ;
#216 = APPLICATION_PROTOCOL_DEFINITION ( 'international standard', 'config_control_design', 1994, #206 ) ;
#217 = PRODUCT ( 'ab11', 'ab11', '', ( #167 ) ) ;
#218 = PRODUCT_RELATED_PRODUCT_CATEGORY ( 'detail', '', ( #217 ) ) ;
#219 = CIRCLE ( 'NONE', #123, 6.000000000000000888 ) ;
#220 = CALENDAR_DATE ( 2022, 7, 7 ) ;
#221 = EDGE_CURVE ( 'NONE', #159, #293, #46, .T. ) ;
#222 = DIRECTION ( 'NONE',  ( 0.000000000000000000, 0.000000000000000000, 1.000000000000000000 ) ) ;
#223 = PERSON_AND_ORGANIZATION_ROLE ( 'design_owner' ) ;
#224 = DIRECTION ( 'NONE',  ( 1.000000000000000000, 0.000000000000000000, 0.000000000000000000 ) ) ;
#225 = AXIS2_PLACEMENT_3D ( 'NONE', #257, #116, #43 ) ;
#226 = CARTESIAN_POINT ( 'NONE',  ( 0.000000000000000000, 0.000000000000000000, 105.0000000000000142 ) ) ;
#227 = DESIGN_CONTEXT ( 'detailed design', #206, 'design' ) ;
#228 = ORIENTED_EDGE ( 'NONE', *, *, #34, .F. ) ;
#229 = CIRCLE ( 'NONE', #208, 3.000000000000000444 ) ;
#230 = ORIENTED_EDGE ( 'NONE', *, *, #149, .F. ) ;
#231 = VERTEX_POINT ( 'NONE', #283 ) ;
#232 = DIRECTION ( 'NONE',  ( -0.000000000000000000, -0.000000000000000000, -1.000000000000000000 ) ) ;
#233 = ORIENTED_EDGE ( 'NONE', *, *, #221, .T. ) ;
#234 = APPROVAL_PERSON_ORGANIZATION ( #145, #90, #239 ) ;
#235 = CARTESIAN_POINT ( 'NONE',  ( 3.000000000000000444, 3.673940397442060361E-16, 5.199999999999996625 ) ) ;
#236 = PERSON ( 'NEURÈENÝ', 'NEURÈENÝ', 'NEURÈENÝ', ('NEURÈENÝ'), ('NEURÈENÝ'), ('NEURÈENÝ') ) ;
#237 = DIRECTION ( 'NONE',  ( 0.000000000000000000, 0.000000000000000000, 1.000000000000000000 ) ) ;
#238 = DIRECTION ( 'NONE',  ( -1.000000000000000000, 0.000000000000000000, 0.000000000000000000 ) ) ;
#239 = APPROVAL_ROLE ( '' ) ;
#240 = DATE_AND_TIME ( #193, #256 ) ;
#241 = ADVANCED_FACE ( 'NONE', ( #115 ), #259, .T. ) ;
#242 = DATE_TIME_ROLE ( 'creation_date' ) ;
#243 = AXIS2_PLACEMENT_3D ( 'NONE', #154, #27, #105 ) ;
#244 = LOCAL_TIME ( 14, 42, 48.00000000000000000, #48 ) ;
#245 = FACE_OUTER_BOUND ( 'NONE', #76, .T. ) ;
#246 = PERSON_AND_ORGANIZATION_ROLE ( 'classification_officer' ) ;
#247 = CARTESIAN_POINT ( 'NONE',  ( -6.000000000000000888, 0.000000000000000000, 5.000000000000000000 ) ) ;
#248 = CARTESIAN_POINT ( 'NONE',  ( -6.000000000000000888, 0.000000000000000000, 5.000000000000000000 ) ) ;
#249 = CARTESIAN_POINT ( 'NONE',  ( 6.000000000000000888, 7.347880794884120722E-16, 0.000000000000000000 ) ) ;
#250 = UNCERTAINTY_MEASURE_WITH_UNIT (LENGTH_MEASURE( 1.000000000000000082E-05 ), #138, 'distance_accuracy_value', 'NONE');
#251 = AXIS2_PLACEMENT_3D ( 'NONE', #152, #222, #201 ) ;
#252 = AXIS2_PLACEMENT_3D ( 'NONE', #91, #284, #68 ) ;
#253 = ORIENTED_EDGE ( 'NONE', *, *, #42, .T. ) ;
#254 = ORIENTED_EDGE ( 'NONE', *, *, #56, .F. ) ;
#255 = EDGE_CURVE ( 'NONE', #127, #293, #306, .T. ) ;
#256 = LOCAL_TIME ( 14, 42, 48.00000000000000000, #101 ) ;
#257 = CARTESIAN_POINT ( 'NONE',  ( 0.000000000000000000, 0.000000000000000000, 5.000000000000000000 ) ) ;
#258 = FACE_OUTER_BOUND ( 'NONE', #210, .T. ) ;
#259 = CYLINDRICAL_SURFACE ( 'NONE', #225, 6.000000000000000888 ) ;
#260 = CIRCLE ( 'NONE', #66, 6.000000000000000888 ) ;
#261 = CARTESIAN_POINT ( 'NONE',  ( 6.000000000000000888, 7.347880794884120722E-16, 5.000000000000000000 ) ) ;
#262 =( NAMED_UNIT ( * ) SI_UNIT ( $, .STERADIAN. ) SOLID_ANGLE_UNIT ( ) );
#263 = EDGE_CURVE ( 'NONE', #38, #80, #260, .T. ) ;
#264 = PERSON_AND_ORGANIZATION ( #236, #78 ) ;
#265 = DIRECTION ( 'NONE',  ( -1.000000000000000000, 0.000000000000000000, 0.000000000000000000 ) ) ;
#266 = AXIS2_PLACEMENT_3D ( 'NONE', #32, #269, #169 ) ;
#267 = APPROVAL_ROLE ( '' ) ;
#268 = AXIS2_PLACEMENT_3D ( 'NONE', #190, #285, #209 ) ;
#269 = DIRECTION ( 'NONE',  ( -0.000000000000000000, -0.000000000000000000, -1.000000000000000000 ) ) ;
#270 = CC_DESIGN_PERSON_AND_ORGANIZATION_ASSIGNMENT ( #2, #25, ( #4 ) ) ;
#271 = LINE ( 'NONE', #248, #107 ) ;
#272 = DIRECTION ( 'NONE',  ( 0.000000000000000000, 0.000000000000000000, 1.000000000000000000 ) ) ;
#273 = LOCAL_TIME ( 14, 42, 48.00000000000000000, #26 ) ;
#274 = ADVANCED_FACE ( 'NONE', ( #301, #22 ), #21, .T. ) ;
#275 = EDGE_LOOP ( 'NONE', ( #110, #183 ) ) ;
#276 = EDGE_LOOP ( 'NONE', ( #114, #297, #233, #136 ) ) ;
#277 = CC_DESIGN_APPROVAL ( #90, ( #4 ) ) ;
#278 = ORIENTED_EDGE ( 'NONE', *, *, #34, .T. ) ;
#279 = VERTEX_POINT ( 'NONE', #305 ) ;
#280 = DIRECTION ( 'NONE',  ( 1.000000000000000000, 0.000000000000000000, 0.000000000000000000 ) ) ;
#281 = ORIENTED_EDGE ( 'NONE', *, *, #255, .T. ) ;
#282 = CIRCLE ( 'NONE', #266, 3.200000000000000622 ) ;
#283 = CARTESIAN_POINT ( 'NONE',  ( 3.200000000000000622, 0.000000000000000000, 4.999999999999998224 ) ) ;
#284 = DIRECTION ( 'NONE',  ( 0.000000000000000000, 0.000000000000000000, 1.000000000000000000 ) ) ;
#285 = DIRECTION ( 'NONE',  ( 0.000000000000000000, 0.000000000000000000, 1.000000000000000000 ) ) ;
#286 = CIRCLE ( 'NONE', #204, 3.200000000000000622 ) ;
#287 = DATE_AND_TIME ( #55, #244 ) ;
#288 = PERSON_AND_ORGANIZATION ( #236, #78 ) ;
#289 = LINE ( 'NONE', #31, #41 ) ;
#290 = SECURITY_CLASSIFICATION_LEVEL ( 'unclassified' ) ;
#291 = CARTESIAN_POINT ( 'NONE',  ( 0.000000000000000000, 0.000000000000000000, 5.199999999999996625 ) ) ;
#292 = PERSON_AND_ORGANIZATION_ROLE ( 'creator' ) ;
#293 = VERTEX_POINT ( 'NONE', #64 ) ;
#294 = CARTESIAN_POINT ( 'NONE',  ( 0.000000000000000000, 0.000000000000000000, 5.199999999999996625 ) ) ;
#295 = FACE_OUTER_BOUND ( 'NONE', #276, .T. ) ;
#296 = EDGE_CURVE ( 'NONE', #35, #127, #16, .T. ) ;
#297 = ORIENTED_EDGE ( 'NONE', *, *, #121, .T. ) ;
#298 = AXIS2_PLACEMENT_3D ( 'NONE', #45, #120, #85 ) ;
#299 = EDGE_LOOP ( 'NONE', ( #179, #58, #79, #254 ) ) ;
#300 = ORIENTED_EDGE ( 'NONE', *, *, #149, .T. ) ;
#301 = FACE_BOUND ( 'NONE', #111, .T. ) ;
#302 = EDGE_CURVE ( 'NONE', #159, #231, #113, .T. ) ;
#303 = DIRECTION ( 'NONE',  ( 0.000000000000000000, 0.000000000000000000, 1.000000000000000000 ) ) ;
#304 = AXIS2_PLACEMENT_3D ( 'NONE', #226, #53, #265 ) ;
#305 = CARTESIAN_POINT ( 'NONE',  ( -3.200000000000000622, 3.918869757271530953E-16, 4.999999999999998224 ) ) ;
#306 = LINE ( 'NONE', #61, #51 ) ;
#307 = ADVANCED_FACE ( 'NONE', ( #112 ), #92, .F. ) ;
ENDSEC;
END-ISO-10303-21;
