ISO-10303-21;
HEADER;
FILE_DESCRIPTION (( 'STEP AP203' ),
    '1' );
FILE_NAME ('40b1.STEP',
    '2022-07-07T12:36:46',
    ( '' ),
    ( '' ),
    'SwSTEP 2.0',
    'SolidWorks 2019',
    '' );
FILE_SCHEMA (( 'CONFIG_CONTROL_DESIGN' ));
ENDSEC;

DATA;
#1 = APPROVAL_ROLE ( '' ) ;
#2 = CARTESIAN_POINT ( 'NONE',  ( 0.000000000000000000, 0.000000000000000000, 0.000000000000000000 ) ) ;
#3 = VERTEX_POINT ( 'NONE', #291 ) ;
#4 = APPLICATION_CONTEXT ( 'configuration controlled 3d designs of mechanical parts and assemblies' ) ;
#5 = ORIENTED_EDGE ( 'NONE', *, *, #82, .F. ) ;
#6 = CARTESIAN_POINT ( 'NONE',  ( -3.700000000000000178, 4.531193156845206201E-16, 4.999999999999991118 ) ) ;
#7 = CC_DESIGN_APPROVAL ( #156, ( #120 ) ) ;
#8 = CARTESIAN_POINT ( 'NONE',  ( 0.000000000000000000, 0.000000000000000000, 405.0000000000000000 ) ) ;
#9 = DESIGN_CONTEXT ( 'detailed design', #4, 'design' ) ;
#10 = DIRECTION ( 'NONE',  ( 1.000000000000000000, 0.000000000000000000, 0.000000000000000000 ) ) ;
#11 = ADVANCED_FACE ( 'NONE', ( #145, #265 ), #27, .T. ) ;
#12 = CARTESIAN_POINT ( 'NONE',  ( -3.700000000000000178, 4.531193156845206201E-16, 5.199999999999982414 ) ) ;
#13 = DIRECTION ( 'NONE',  ( 1.000000000000000000, 0.000000000000000000, -0.000000000000000000 ) ) ;
#14 = DIRECTION ( 'NONE',  ( 0.000000000000000000, 0.000000000000000000, 1.000000000000000000 ) ) ;
#15 = ADVANCED_FACE ( 'NONE', ( #151 ), #51, .T. ) ;
#16 = DIRECTION ( 'NONE',  ( -1.000000000000000000, 0.000000000000000000, 0.000000000000000000 ) ) ;
#17 = DIRECTION ( 'NONE',  ( 0.000000000000000000, 0.000000000000000000, 1.000000000000000000 ) ) ;
#18 = AXIS2_PLACEMENT_3D ( 'NONE', #8, #243, #172 ) ;
#19 = DIRECTION ( 'NONE',  ( 1.000000000000000000, 0.000000000000000000, 0.000000000000000000 ) ) ;
#20 = CC_DESIGN_PERSON_AND_ORGANIZATION_ASSIGNMENT ( #113, #187, ( #120 ) ) ;
#21 = APPROVAL_DATE_TIME ( #117, #156 ) ;
#22 = PERSON_AND_ORGANIZATION ( #148, #105 ) ;
#23 = APPROVAL_STATUS ( 'not_yet_approved' ) ;
#24 = VERTEX_POINT ( 'NONE', #268 ) ;
#25 = CALENDAR_DATE ( 2022, 7, 7 ) ;
#26 = CC_DESIGN_SECURITY_CLASSIFICATION ( #160, ( #91 ) ) ;
#27 = PLANE ( 'NONE',  #226 ) ;
#28 = ADVANCED_FACE ( 'NONE', ( #218 ), #169, .F. ) ;
#29 = VERTEX_POINT ( 'NONE', #98 ) ;
#30 = FACE_OUTER_BOUND ( 'NONE', #289, .T. ) ;
#31 = CIRCLE ( 'NONE', #52, 3.700000000000000178 ) ;
#32 = ADVANCED_FACE ( 'NONE', ( #287 ), #240, .T. ) ;
#33 = DIRECTION ( 'NONE',  ( 0.000000000000000000, -1.000000000000000000, 0.000000000000000000 ) ) ;
#34 = CARTESIAN_POINT ( 'NONE',  ( 0.000000000000000000, 0.000000000000000000, 5.199999999999982414 ) ) ;
#35 = DIRECTION ( 'NONE',  ( -0.000000000000000000, -0.000000000000000000, -1.000000000000000000 ) ) ;
#36 = CIRCLE ( 'NONE', #207, 6.000000000000000888 ) ;
#37 = DIRECTION ( 'NONE',  ( 1.000000000000000000, 0.000000000000000000, 0.000000000000000000 ) ) ;
#38 = EDGE_CURVE ( 'NONE', #186, #3, #56, .T. ) ;
#39 = CARTESIAN_POINT ( 'NONE',  ( 3.500000000000000000, 4.286263797015736595E-16, 5.199999999999982414 ) ) ;
#40 = DIRECTION ( 'NONE',  ( -1.000000000000000000, 0.000000000000000000, 0.000000000000000000 ) ) ;
#41 = PERSON_AND_ORGANIZATION ( #148, #105 ) ;
#42 = AXIS2_PLACEMENT_3D ( 'NONE', #84, #222, #111 ) ;
#43 = CC_DESIGN_PERSON_AND_ORGANIZATION_ASSIGNMENT ( #88, #258, ( #44 ) ) ;
#44 = PRODUCT ( '40b1', '40b1', '', ( #253 ) ) ;
#45 = APPROVAL_ROLE ( '' ) ;
#46 = EDGE_LOOP ( 'NONE', ( #118, #281, #189, #5 ) ) ;
#47 = PERSON_AND_ORGANIZATION ( #148, #105 ) ;
#48 = ORIENTED_EDGE ( 'NONE', *, *, #139, .F. ) ;
#49 = DATE_AND_TIME ( #184, #286 ) ;
#50 = APPROVAL_DATE_TIME ( #141, #125 ) ;
#51 = PLANE ( 'NONE',  #18 ) ;
#52 = AXIS2_PLACEMENT_3D ( 'NONE', #158, #132, #223 ) ;
#53 = VERTEX_POINT ( 'NONE', #6 ) ;
#54 = CYLINDRICAL_SURFACE ( 'NONE', #285, 3.500000000000000000 ) ;
#55 = ORIENTED_EDGE ( 'NONE', *, *, #38, .F. ) ;
#56 = CIRCLE ( 'NONE', #142, 0.1999999999999996503 ) ;
#57 = DIRECTION ( 'NONE',  ( 1.000000000000000000, 0.000000000000000000, -0.000000000000000000 ) ) ;
#58 = DIRECTION ( 'NONE',  ( 1.000000000000000000, 0.000000000000000000, 0.000000000000000000 ) ) ;
#59 = DIRECTION ( 'NONE',  ( 1.000000000000000000, 0.000000000000000000, 0.000000000000000000 ) ) ;
#60 = DIRECTION ( 'NONE',  ( 1.000000000000000000, 0.000000000000000000, 0.000000000000000000 ) ) ;
#61 = CARTESIAN_POINT ( 'NONE',  ( -3.500000000000000000, 0.000000000000000000, 405.0000000000000000 ) ) ;
#62 = CARTESIAN_POINT ( 'NONE',  ( 0.000000000000000000, 0.000000000000000000, 5.199999999999982414 ) ) ;
#63 = AXIS2_PLACEMENT_3D ( 'NONE', #107, #14, #58 ) ;
#64 = APPROVAL_STATUS ( 'not_yet_approved' ) ;
#65 = AXIS2_PLACEMENT_3D ( 'NONE', #168, #124, #262 ) ;
#66 = APPROVAL_DATE_TIME ( #90, #102 ) ;
#67 = VERTEX_POINT ( 'NONE', #100 ) ;
#68 = DATE_AND_TIME ( #282, #149 ) ;
#69 = APPLICATION_PROTOCOL_DEFINITION ( 'international standard', 'config_control_design', 1994, #4 ) ;
#70 = AXIS2_PLACEMENT_3D ( 'NONE', #266, #242, #10 ) ;
#71 = PERSON_AND_ORGANIZATION ( #148, #105 ) ;
#72 = ORIENTED_EDGE ( 'NONE', *, *, #150, .F. ) ;
#73 = EDGE_CURVE ( 'NONE', #271, #206, #195, .T. ) ;
#74 = UNCERTAINTY_MEASURE_WITH_UNIT (LENGTH_MEASURE( 1.000000000000000082E-05 ), #161, 'distance_accuracy_value', 'NONE');
#75 = ORIENTED_EDGE ( 'NONE', *, *, #255, .T. ) ;
#76 = DIRECTION ( 'NONE',  ( 0.000000000000000000, 0.000000000000000000, -1.000000000000000000 ) ) ;
#77 = AXIS2_PLACEMENT_3D ( 'NONE', #12, #224, #83 ) ;
#78 = CARTESIAN_POINT ( 'NONE',  ( -6.000000000000000888, 0.000000000000000000, 5.000000000000000000 ) ) ;
#79 = ORIENTED_EDGE ( 'NONE', *, *, #139, .T. ) ;
#80 = ORIENTED_EDGE ( 'NONE', *, *, #173, .F. ) ;
#81 = CARTESIAN_POINT ( 'NONE',  ( 3.500000000000000000, 4.286263797015736595E-16, 405.0000000000000000 ) ) ;
#82 = EDGE_CURVE ( 'NONE', #53, #3, #202, .T. ) ;
#83 = DIRECTION ( 'NONE',  ( -1.000000000000000000, 1.224646799147350742E-16, 0.000000000000000000 ) ) ;
#84 = CARTESIAN_POINT ( 'NONE',  ( 0.000000000000000000, 0.000000000000000000, 405.0000000000000000 ) ) ;
#85 = LINE ( 'NONE', #274, #122 ) ;
#86 = ADVANCED_FACE ( 'NONE', ( #30 ), #54, .T. ) ;
#87 = DIRECTION ( 'NONE',  ( 0.000000000000000000, 0.000000000000000000, 1.000000000000000000 ) ) ;
#88 = PERSON_AND_ORGANIZATION ( #148, #105 ) ;
#89 = EDGE_LOOP ( 'NONE', ( #162, #301 ) ) ;
#90 = DATE_AND_TIME ( #210, #96 ) ;
#91 = PRODUCT_DEFINITION_FORMATION_WITH_SPECIFIED_SOURCE ( 'LIBOVOLNÝ', '', #44, .NOT_KNOWN. ) ;
#92 = ORIENTED_EDGE ( 'NONE', *, *, #183, .T. ) ;
#93 = EDGE_LOOP ( 'NONE', ( #75, #305 ) ) ;
#94 = VERTEX_POINT ( 'NONE', #196 ) ;
#95 = PERSON_AND_ORGANIZATION_ROLE ( 'creator' ) ;
#96 = LOCAL_TIME ( 14, 36, 46.00000000000000000, #278 ) ;
#97 = CC_DESIGN_PERSON_AND_ORGANIZATION_ASSIGNMENT ( #22, #140, ( #91 ) ) ;
#98 = CARTESIAN_POINT ( 'NONE',  ( 6.000000000000000888, 7.347880794884120722E-16, 5.000000000000000000 ) ) ;
#99 = EDGE_LOOP ( 'NONE', ( #138, #144, #284, #121 ) ) ;
#100 = CARTESIAN_POINT ( 'NONE',  ( 3.500000000000000000, 4.286263797015736595E-16, 405.0000000000000000 ) ) ;
#101 = DIRECTION ( 'NONE',  ( -1.000000000000000000, 0.000000000000000000, 0.000000000000000000 ) ) ;
#102 = APPROVAL ( #306, 'NEURÈENÝ' ) ;
#103 = ORIENTED_EDGE ( 'NONE', *, *, #129, .T. ) ;
#104 = DIRECTION ( 'NONE',  ( -0.000000000000000000, -0.000000000000000000, -1.000000000000000000 ) ) ;
#105 = ORGANIZATION ( 'NEURÈENÝ', 'NEURÈENÝ', '' ) ;
#106 = ADVANCED_FACE ( 'NONE', ( #155 ), #110, .F. ) ;
#107 = CARTESIAN_POINT ( 'NONE',  ( 0.000000000000000000, 0.000000000000000000, 5.000000000000000000 ) ) ;
#108 = CARTESIAN_POINT ( 'NONE',  ( 0.000000000000000000, 0.000000000000000000, 405.0000000000000000 ) ) ;
#109 = DIRECTION ( 'NONE',  ( 1.000000000000000000, 0.000000000000000000, 0.000000000000000000 ) ) ;
#110 = TOROIDAL_SURFACE ( 'NONE', #263, 3.700000000000000178, 0.2000000000000000111 ) ;
#111 = DIRECTION ( 'NONE',  ( 1.000000000000000000, 0.000000000000000000, 0.000000000000000000 ) ) ;
#112 =( NAMED_UNIT ( * ) SI_UNIT ( $, .STERADIAN. ) SOLID_ANGLE_UNIT ( ) );
#113 = PERSON_AND_ORGANIZATION ( #148, #105 ) ;
#114 = COORDINATED_UNIVERSAL_TIME_OFFSET ( 1, 0, .AHEAD. ) ;
#115 = APPROVAL_PERSON_ORGANIZATION ( #41, #156, #45 ) ;
#116 = ORIENTED_EDGE ( 'NONE', *, *, #129, .F. ) ;
#117 = DATE_AND_TIME ( #136, #275 ) ;
#118 = ORIENTED_EDGE ( 'NONE', *, *, #197, .F. ) ;
#119 =( NAMED_UNIT ( * ) PLANE_ANGLE_UNIT ( ) SI_UNIT ( $, .RADIAN. ) );
#120 = PRODUCT_DEFINITION ( 'NEZNÁMÝ', '', #91, #9 ) ;
#121 = ORIENTED_EDGE ( 'NONE', *, *, #250, .T. ) ;
#122 = VECTOR ( 'NONE', #277, 1000.000000000000000 ) ;
#123 = ORIENTED_EDGE ( 'NONE', *, *, #231, .T. ) ;
#124 = DIRECTION ( 'NONE',  ( -0.000000000000000000, -0.000000000000000000, -1.000000000000000000 ) ) ;
#125 = APPROVAL ( #23, 'NEURÈENÝ' ) ;
#126 = CARTESIAN_POINT ( 'NONE',  ( 0.000000000000000000, 0.000000000000000000, 405.0000000000000000 ) ) ;
#127 = DIRECTION ( 'NONE',  ( 0.000000000000000000, 0.000000000000000000, 1.000000000000000000 ) ) ;
#128 = CARTESIAN_POINT ( 'NONE',  ( 0.000000000000000000, 0.000000000000000000, 5.199999999999982414 ) ) ;
#129 = EDGE_CURVE ( 'NONE', #188, #67, #134, .T. ) ;
#130 = APPROVAL_PERSON_ORGANIZATION ( #230, #102, #303 ) ;
#131 = CYLINDRICAL_SURFACE ( 'NONE', #143, 3.500000000000000000 ) ;
#132 = DIRECTION ( 'NONE',  ( -0.000000000000000000, -0.000000000000000000, -1.000000000000000000 ) ) ;
#133 = CARTESIAN_POINT ( 'NONE',  ( 0.000000000000000000, 0.000000000000000000, 5.000000000000000000 ) ) ;
#134 = CIRCLE ( 'NONE', #42, 3.500000000000000000 ) ;
#135 = COORDINATED_UNIVERSAL_TIME_OFFSET ( 1, 0, .AHEAD. ) ;
#136 = CALENDAR_DATE ( 2022, 7, 7 ) ;
#137 = CIRCLE ( 'NONE', #248, 3.500000000000000000 ) ;
#138 = ORIENTED_EDGE ( 'NONE', *, *, #260, .F. ) ;
#139 = EDGE_CURVE ( 'NONE', #67, #186, #273, .T. ) ;
#140 = PERSON_AND_ORGANIZATION_ROLE ( 'design_supplier' ) ;
#141 = DATE_AND_TIME ( #25, #191 ) ;
#142 = AXIS2_PLACEMENT_3D ( 'NONE', #146, #33, #76 ) ;
#143 = AXIS2_PLACEMENT_3D ( 'NONE', #108, #276, #40 ) ;
#144 = ORIENTED_EDGE ( 'NONE', *, *, #231, .F. ) ;
#145 = FACE_BOUND ( 'NONE', #93, .T. ) ;
#146 = CARTESIAN_POINT ( 'NONE',  ( 3.700000000000000178, 0.000000000000000000, 5.199999999999982414 ) ) ;
#147 = DIRECTION ( 'NONE',  ( -0.000000000000000000, -0.000000000000000000, -1.000000000000000000 ) ) ;
#148 = PERSON ( 'NEURÈENÝ', 'NEURÈENÝ', 'NEURÈENÝ', ('NEURÈENÝ'), ('NEURÈENÝ'), ('NEURÈENÝ') ) ;
#149 = LOCAL_TIME ( 14, 36, 46.00000000000000000, #114 ) ;
#150 = EDGE_CURVE ( 'NONE', #24, #186, #211, .T. ) ;
#151 = FACE_OUTER_BOUND ( 'NONE', #198, .T. ) ;
#152 = DIRECTION ( 'NONE',  ( 0.000000000000000000, 0.000000000000000000, 1.000000000000000000 ) ) ;
#153 = FACE_OUTER_BOUND ( 'NONE', #259, .T. ) ;
#154 = CIRCLE ( 'NONE', #241, 3.500000000000000000 ) ;
#155 = FACE_OUTER_BOUND ( 'NONE', #46, .T. ) ;
#156 = APPROVAL ( #64, 'NEURÈENÝ' ) ;
#157 = FACE_OUTER_BOUND ( 'NONE', #257, .T. ) ;
#158 = CARTESIAN_POINT ( 'NONE',  ( 0.000000000000000000, 0.000000000000000000, 5.000000000000000000 ) ) ;
#159 = AXIS2_PLACEMENT_3D ( 'NONE', #200, #246, #59 ) ;
#160 = SECURITY_CLASSIFICATION ( '', '', #190 ) ;
#161 =( LENGTH_UNIT ( ) NAMED_UNIT ( * ) SI_UNIT ( .MILLI., .METRE. ) );
#162 = ORIENTED_EDGE ( 'NONE', *, *, #250, .F. ) ;
#163 = PERSON_AND_ORGANIZATION ( #148, #105 ) ;
#164 = ORIENTED_EDGE ( 'NONE', *, *, #280, .T. ) ;
#165 = ORIENTED_EDGE ( 'NONE', *, *, #302, .F. ) ;
#166 = VECTOR ( 'NONE', #147, 1000.000000000000000 ) ;
#167 = AXIS2_PLACEMENT_3D ( 'NONE', #133, #35, #16 ) ;
#168 = CARTESIAN_POINT ( 'NONE',  ( 0.000000000000000000, 0.000000000000000000, 5.000000000000000000 ) ) ;
#169 = TOROIDAL_SURFACE ( 'NONE', #178, 3.700000000000000178, 0.2000000000000000111 ) ;
#170 = AXIS2_PLACEMENT_3D ( 'NONE', #177, #87, #13 ) ;
#171 = ORIENTED_EDGE ( 'NONE', *, *, #260, .T. ) ;
#172 = DIRECTION ( 'NONE',  ( 1.000000000000000000, 0.000000000000000000, -0.000000000000000000 ) ) ;
#173 = EDGE_CURVE ( 'NONE', #29, #271, #304, .T. ) ;
#174 = ORIENTED_EDGE ( 'NONE', *, *, #173, .T. ) ;
#175 = CARTESIAN_POINT ( 'NONE',  ( 0.000000000000000000, 0.000000000000000000, 405.0000000000000000 ) ) ;
#176 = CARTESIAN_POINT ( 'NONE',  ( -6.000000000000000888, 0.000000000000000000, 0.000000000000000000 ) ) ;
#177 = CARTESIAN_POINT ( 'NONE',  ( 0.000000000000000000, 0.000000000000000000, 0.000000000000000000 ) ) ;
#178 = AXIS2_PLACEMENT_3D ( 'NONE', #34, #239, #213 ) ;
#179 = VECTOR ( 'NONE', #104, 1000.000000000000000 ) ;
#180 = CARTESIAN_POINT ( 'NONE',  ( -6.000000000000000888, 0.000000000000000000, 5.000000000000000000 ) ) ;
#181 = CARTESIAN_POINT ( 'NONE',  ( 0.000000000000000000, 0.000000000000000000, 5.000000000000000000 ) ) ;
#182 = APPLICATION_CONTEXT ( 'configuration controlled 3d designs of mechanical parts and assemblies' ) ;
#183 = EDGE_CURVE ( 'NONE', #94, #206, #36, .T. ) ;
#184 = CALENDAR_DATE ( 2022, 7, 7 ) ;
#185 = AXIS2_PLACEMENT_3D ( 'NONE', #295, #251, #60 ) ;
#186 = VERTEX_POINT ( 'NONE', #39 ) ;
#187 = PERSON_AND_ORGANIZATION_ROLE ( 'creator' ) ;
#188 = VERTEX_POINT ( 'NONE', #294 ) ;
#189 = ORIENTED_EDGE ( 'NONE', *, *, #38, .T. ) ;
#190 = SECURITY_CLASSIFICATION_LEVEL ( 'unclassified' ) ;
#191 = LOCAL_TIME ( 14, 36, 46.00000000000000000, #261 ) ;
#192 = ADVANCED_FACE ( 'NONE', ( #153 ), #131, .T. ) ;
#193 = ORIENTED_EDGE ( 'NONE', *, *, #255, .F. ) ;
#194 =( GEOMETRIC_REPRESENTATION_CONTEXT ( 3 ) GLOBAL_UNCERTAINTY_ASSIGNED_CONTEXT ( ( #74 ) ) GLOBAL_UNIT_ASSIGNED_CONTEXT ( ( #161, #119, #112 ) ) REPRESENTATION_CONTEXT ( 'NONE', 'WORKASPACE' ) );
#195 = LINE ( 'NONE', #78, #166 ) ;
#196 = CARTESIAN_POINT ( 'NONE',  ( 6.000000000000000888, 7.347880794884120722E-16, 0.000000000000000000 ) ) ;
#197 = EDGE_CURVE ( 'NONE', #24, #53, #247, .T. ) ;
#198 = EDGE_LOOP ( 'NONE', ( #103, #235 ) ) ;
#199 = DIRECTION ( 'NONE',  ( 1.000000000000000000, 0.000000000000000000, 0.000000000000000000 ) ) ;
#200 = CARTESIAN_POINT ( 'NONE',  ( 0.000000000000000000, 0.000000000000000000, 5.199999999999982414 ) ) ;
#201 = PLANE ( 'NONE',  #170 ) ;
#202 = CIRCLE ( 'NONE', #70, 3.700000000000000178 ) ;
#203 = CARTESIAN_POINT ( 'NONE',  ( 0.000000000000000000, 0.000000000000000000, 0.000000000000000000 ) ) ;
#204 = ADVANCED_FACE ( 'NONE', ( #299 ), #201, .F. ) ;
#205 = COORDINATED_UNIVERSAL_TIME_OFFSET ( 1, 0, .AHEAD. ) ;
#206 = VERTEX_POINT ( 'NONE', #176 ) ;
#207 = AXIS2_PLACEMENT_3D ( 'NONE', #203, #249, #37 ) ;
#208 = DATE_TIME_ROLE ( 'creation_date' ) ;
#209 = CC_DESIGN_PERSON_AND_ORGANIZATION_ASSIGNMENT ( #163, #95, ( #91 ) ) ;
#210 = CALENDAR_DATE ( 2022, 7, 7 ) ;
#211 = CIRCLE ( 'NONE', #159, 3.500000000000000000 ) ;
#212 = CC_DESIGN_APPROVAL ( #125, ( #160 ) ) ;
#213 = DIRECTION ( 'NONE',  ( 1.000000000000000000, 0.000000000000000000, 0.000000000000000000 ) ) ;
#214 = EDGE_LOOP ( 'NONE', ( #72, #279, #193, #55 ) ) ;
#215 = ORIENTED_EDGE ( 'NONE', *, *, #280, .F. ) ;
#216 = APPROVAL_PERSON_ORGANIZATION ( #47, #125, #1 ) ;
#217 = DIRECTION ( 'NONE',  ( -0.000000000000000000, -0.000000000000000000, -1.000000000000000000 ) ) ;
#218 = FACE_OUTER_BOUND ( 'NONE', #214, .T. ) ;
#219 = LINE ( 'NONE', #61, #179 ) ;
#220 = DIRECTION ( 'NONE',  ( 1.000000000000000000, 0.000000000000000000, 0.000000000000000000 ) ) ;
#221 = VECTOR ( 'NONE', #296, 1000.000000000000000 ) ;
#222 = DIRECTION ( 'NONE',  ( 0.000000000000000000, 0.000000000000000000, 1.000000000000000000 ) ) ;
#223 = DIRECTION ( 'NONE',  ( 1.000000000000000000, 0.000000000000000000, 0.000000000000000000 ) ) ;
#224 = DIRECTION ( 'NONE',  ( 1.224646799147353207E-16, 1.000000000000000000, -0.000000000000000000 ) ) ;
#225 = CC_DESIGN_DATE_AND_TIME_ASSIGNMENT ( #68, #256, ( #160 ) ) ;
#226 = AXIS2_PLACEMENT_3D ( 'NONE', #288, #127, #57 ) ;
#227 = AXIS2_PLACEMENT_3D ( 'NONE', #181, #152, #199 ) ;
#228 = APPLICATION_PROTOCOL_DEFINITION ( 'international standard', 'config_control_design', 1994, #182 ) ;
#229 = DIRECTION ( 'NONE',  ( 0.000000000000000000, 0.000000000000000000, 1.000000000000000000 ) ) ;
#230 = PERSON_AND_ORGANIZATION ( #148, #105 ) ;
#231 = EDGE_CURVE ( 'NONE', #271, #29, #264, .T. ) ;
#232 = PERSON_AND_ORGANIZATION_ROLE ( 'classification_officer' ) ;
#233 = ADVANCED_BREP_SHAPE_REPRESENTATION ( '40b1', ( #234, #293 ), #194 ) ;
#234 = MANIFOLD_SOLID_BREP ( 'Zaoblit1', #269 ) ;
#235 = ORIENTED_EDGE ( 'NONE', *, *, #302, .T. ) ;
#236 = SHAPE_DEFINITION_REPRESENTATION ( #283, #233 ) ;
#237 = ADVANCED_FACE ( 'NONE', ( #157 ), #297, .T. ) ;
#238 = EDGE_LOOP ( 'NONE', ( #123, #174 ) ) ;
#239 = DIRECTION ( 'NONE',  ( 0.000000000000000000, 0.000000000000000000, 1.000000000000000000 ) ) ;
#240 = CYLINDRICAL_SURFACE ( 'NONE', #65, 6.000000000000000888 ) ;
#241 = AXIS2_PLACEMENT_3D ( 'NONE', #175, #244, #300 ) ;
#242 = DIRECTION ( 'NONE',  ( -0.000000000000000000, -0.000000000000000000, -1.000000000000000000 ) ) ;
#243 = DIRECTION ( 'NONE',  ( 0.000000000000000000, 0.000000000000000000, 1.000000000000000000 ) ) ;
#244 = DIRECTION ( 'NONE',  ( 0.000000000000000000, 0.000000000000000000, 1.000000000000000000 ) ) ;
#245 = CC_DESIGN_DATE_AND_TIME_ASSIGNMENT ( #49, #208, ( #120 ) ) ;
#246 = DIRECTION ( 'NONE',  ( 0.000000000000000000, 0.000000000000000000, 1.000000000000000000 ) ) ;
#247 = CIRCLE ( 'NONE', #77, 0.2000000000000000944 ) ;
#248 = AXIS2_PLACEMENT_3D ( 'NONE', #62, #252, #109 ) ;
#249 = DIRECTION ( 'NONE',  ( 0.000000000000000000, 0.000000000000000000, 1.000000000000000000 ) ) ;
#250 = EDGE_CURVE ( 'NONE', #206, #94, #298, .T. ) ;
#251 = DIRECTION ( 'NONE',  ( 0.000000000000000000, 0.000000000000000000, 1.000000000000000000 ) ) ;
#252 = DIRECTION ( 'NONE',  ( 0.000000000000000000, 0.000000000000000000, 1.000000000000000000 ) ) ;
#253 = MECHANICAL_CONTEXT ( 'NONE', #182, 'mechanical' ) ;
#254 = ORIENTED_EDGE ( 'NONE', *, *, #150, .T. ) ;
#255 = EDGE_CURVE ( 'NONE', #3, #53, #31, .T. ) ;
#256 = DATE_TIME_ROLE ( 'classification_date' ) ;
#257 = EDGE_LOOP ( 'NONE', ( #80, #171, #92, #290 ) ) ;
#258 = PERSON_AND_ORGANIZATION_ROLE ( 'design_owner' ) ;
#259 = EDGE_LOOP ( 'NONE', ( #165, #79, #307, #215 ) ) ;
#260 = EDGE_CURVE ( 'NONE', #29, #94, #85, .T. ) ;
#261 = COORDINATED_UNIVERSAL_TIME_OFFSET ( 1, 0, .AHEAD. ) ;
#262 = DIRECTION ( 'NONE',  ( -1.000000000000000000, 0.000000000000000000, 0.000000000000000000 ) ) ;
#263 = AXIS2_PLACEMENT_3D ( 'NONE', #128, #17, #220 ) ;
#264 = CIRCLE ( 'NONE', #227, 6.000000000000000888 ) ;
#265 = FACE_OUTER_BOUND ( 'NONE', #238, .T. ) ;
#266 = CARTESIAN_POINT ( 'NONE',  ( 0.000000000000000000, 0.000000000000000000, 5.000000000000000000 ) ) ;
#267 = EDGE_CURVE ( 'NONE', #186, #24, #137, .T. ) ;
#268 = CARTESIAN_POINT ( 'NONE',  ( -3.500000000000000000, 0.000000000000000000, 5.199999999999982414 ) ) ;
#269 = CLOSED_SHELL ( 'NONE', ( #28, #192, #237, #32, #11, #204, #86, #15, #106 ) ) ;
#270 = CC_DESIGN_APPROVAL ( #102, ( #91 ) ) ;
#271 = VERTEX_POINT ( 'NONE', #180 ) ;
#272 = PRODUCT_RELATED_PRODUCT_CATEGORY ( 'detail', '', ( #44 ) ) ;
#273 = LINE ( 'NONE', #81, #221 ) ;
#274 = CARTESIAN_POINT ( 'NONE',  ( 6.000000000000000888, 7.347880794884120722E-16, 5.000000000000000000 ) ) ;
#275 = LOCAL_TIME ( 14, 36, 46.00000000000000000, #135 ) ;
#276 = DIRECTION ( 'NONE',  ( -0.000000000000000000, -0.000000000000000000, -1.000000000000000000 ) ) ;
#277 = DIRECTION ( 'NONE',  ( -0.000000000000000000, -0.000000000000000000, -1.000000000000000000 ) ) ;
#278 = COORDINATED_UNIVERSAL_TIME_OFFSET ( 1, 0, .AHEAD. ) ;
#279 = ORIENTED_EDGE ( 'NONE', *, *, #197, .T. ) ;
#280 = EDGE_CURVE ( 'NONE', #188, #24, #219, .T. ) ;
#281 = ORIENTED_EDGE ( 'NONE', *, *, #267, .F. ) ;
#282 = CALENDAR_DATE ( 2022, 7, 7 ) ;
#283 = PRODUCT_DEFINITION_SHAPE ( 'NONE', 'NONE',  #120 ) ;
#284 = ORIENTED_EDGE ( 'NONE', *, *, #73, .T. ) ;
#285 = AXIS2_PLACEMENT_3D ( 'NONE', #126, #217, #101 ) ;
#286 = LOCAL_TIME ( 14, 36, 46.00000000000000000, #205 ) ;
#287 = FACE_OUTER_BOUND ( 'NONE', #99, .T. ) ;
#288 = CARTESIAN_POINT ( 'NONE',  ( 0.000000000000000000, 0.000000000000000000, 5.000000000000000000 ) ) ;
#289 = EDGE_LOOP ( 'NONE', ( #48, #116, #164, #254 ) ) ;
#290 = ORIENTED_EDGE ( 'NONE', *, *, #73, .F. ) ;
#291 = CARTESIAN_POINT ( 'NONE',  ( 3.700000000000000178, 0.000000000000000000, 4.999999999999991118 ) ) ;
#292 = CC_DESIGN_PERSON_AND_ORGANIZATION_ASSIGNMENT ( #71, #232, ( #160 ) ) ;
#293 = AXIS2_PLACEMENT_3D ( 'NONE', #2, #229, #19 ) ;
#294 = CARTESIAN_POINT ( 'NONE',  ( -3.500000000000000000, 0.000000000000000000, 405.0000000000000000 ) ) ;
#295 = CARTESIAN_POINT ( 'NONE',  ( 0.000000000000000000, 0.000000000000000000, 0.000000000000000000 ) ) ;
#296 = DIRECTION ( 'NONE',  ( -0.000000000000000000, -0.000000000000000000, -1.000000000000000000 ) ) ;
#297 = CYLINDRICAL_SURFACE ( 'NONE', #167, 6.000000000000000888 ) ;
#298 = CIRCLE ( 'NONE', #185, 6.000000000000000888 ) ;
#299 = FACE_OUTER_BOUND ( 'NONE', #89, .T. ) ;
#300 = DIRECTION ( 'NONE',  ( 1.000000000000000000, 0.000000000000000000, 0.000000000000000000 ) ) ;
#301 = ORIENTED_EDGE ( 'NONE', *, *, #183, .F. ) ;
#302 = EDGE_CURVE ( 'NONE', #67, #188, #154, .T. ) ;
#303 = APPROVAL_ROLE ( '' ) ;
#304 = CIRCLE ( 'NONE', #63, 6.000000000000000888 ) ;
#305 = ORIENTED_EDGE ( 'NONE', *, *, #82, .T. ) ;
#306 = APPROVAL_STATUS ( 'not_yet_approved' ) ;
#307 = ORIENTED_EDGE ( 'NONE', *, *, #267, .T. ) ;
ENDSEC;
END-ISO-10303-21;
