ISO-10303-21;
HEADER;
FILE_DESCRIPTION (( 'STEP AP203' ),
    '1' );
FILE_NAME ('c245.STEP',
    '2023-02-12T10:36:18',
    ( '' ),
    ( '' ),
    'SwSTEP 2.0',
    'SolidWorks 2019',
    '' );
FILE_SCHEMA (( 'CONFIG_CONTROL_DESIGN' ));
ENDSEC;

DATA;
#1 = CARTESIAN_POINT ( 'NONE',  ( 0.000000000000000000, 0.000000000000000000, 8.000000000000000000 ) ) ;
#2 = CIRCLE ( 'NONE', #224, 10.00000000000000178 ) ;
#3 = DIRECTION ( 'NONE',  ( 1.000000000000000000, 0.000000000000000000, 0.000000000000000000 ) ) ;
#4 = ADVANCED_FACE ( 'NONE', ( #153 ), #54, .T. ) ;
#5 = AXIS2_PLACEMENT_3D ( 'NONE', #138, #214, #218 ) ;
#6 = EDGE_CURVE ( 'NONE', #94, #170, #228, .T. ) ;
#7 = ORIENTED_EDGE ( 'NONE', *, *, #101, .T. ) ;
#8 = PERSON_AND_ORGANIZATION ( #92, #244 ) ;
#9 = ORIENTED_EDGE ( 'NONE', *, *, #129, .F. ) ;
#10 = ADVANCED_FACE ( 'NONE', ( #113 ), #30, .T. ) ;
#11 = CALENDAR_DATE ( 2023, 12, 2 ) ;
#12 = EDGE_LOOP ( 'NONE', ( #65, #207 ) ) ;
#13 = DIRECTION ( 'NONE',  ( 1.000000000000000000, 0.000000000000000000, 0.000000000000000000 ) ) ;
#14 = EDGE_LOOP ( 'NONE', ( #74, #169, #209, #240 ) ) ;
#15 = APPROVAL_STATUS ( 'not_yet_approved' ) ;
#16 = ORIENTED_EDGE ( 'NONE', *, *, #231, .F. ) ;
#17 = PERSON_AND_ORGANIZATION ( #92, #244 ) ;
#18 = LINE ( 'NONE', #59, #87 ) ;
#19 = CARTESIAN_POINT ( 'NONE',  ( 0.000000000000000000, 0.000000000000000000, 0.000000000000000000 ) ) ;
#20 = CIRCLE ( 'NONE', #167, 10.00000000000000178 ) ;
#21 = AXIS2_PLACEMENT_3D ( 'NONE', #1, #84, #165 ) ;
#22 = CARTESIAN_POINT ( 'NONE',  ( -10.00000000000000178, 0.000000000000000000, 200.0000000000000000 ) ) ;
#23 = DIRECTION ( 'NONE',  ( 0.000000000000000000, 0.000000000000000000, 1.000000000000000000 ) ) ;
#24 = DIRECTION ( 'NONE',  ( 0.000000000000000000, 0.000000000000000000, 1.000000000000000000 ) ) ;
#25 = VECTOR ( 'NONE', #32, 1000.000000000000000 ) ;
#26 = DIRECTION ( 'NONE',  ( 1.000000000000000000, 0.000000000000000000, 0.000000000000000000 ) ) ;
#27 = ADVANCED_FACE ( 'NONE', ( #56 ), #100, .T. ) ;
#28 = AXIS2_PLACEMENT_3D ( 'NONE', #60, #24, #232 ) ;
#29 = AXIS2_PLACEMENT_3D ( 'NONE', #246, #75, #13 ) ;
#30 = CYLINDRICAL_SURFACE ( 'NONE', #5, 13.00000000000000178 ) ;
#31 = COORDINATED_UNIVERSAL_TIME_OFFSET ( 1, 0, .AHEAD. ) ;
#32 = DIRECTION ( 'NONE',  ( -0.000000000000000000, -0.000000000000000000, -1.000000000000000000 ) ) ;
#33 = DATE_AND_TIME ( #11, #152 ) ;
#34 = EDGE_LOOP ( 'NONE', ( #16, #35, #193, #190 ) ) ;
#35 = ORIENTED_EDGE ( 'NONE', *, *, #141, .T. ) ;
#36 = MECHANICAL_CONTEXT ( 'NONE', #186, 'mechanical' ) ;
#37 = ORIENTED_EDGE ( 'NONE', *, *, #53, .T. ) ;
#38 = LOCAL_TIME ( 11, 36, 18.00000000000000000, #31 ) ;
#39 = PLANE ( 'NONE',  #174 ) ;
#40 = CARTESIAN_POINT ( 'NONE',  ( 10.00000000000000178, 1.224646799147353454E-15, 8.000000000000000000 ) ) ;
#41 = CYLINDRICAL_SURFACE ( 'NONE', #132, 10.00000000000000178 ) ;
#42 = VECTOR ( 'NONE', #143, 1000.000000000000000 ) ;
#43 = CIRCLE ( 'NONE', #188, 10.00000000000000178 ) ;
#44 = CARTESIAN_POINT ( 'NONE',  ( 10.00000000000000178, 1.224646799147353454E-15, 200.0000000000000000 ) ) ;
#45 = DIRECTION ( 'NONE',  ( 1.000000000000000000, 0.000000000000000000, 0.000000000000000000 ) ) ;
#46 = VECTOR ( 'NONE', #127, 1000.000000000000000 ) ;
#47 = APPROVAL ( #15, 'NEURÈENÝ' ) ;
#48 = CC_DESIGN_APPROVAL ( #220, ( #106 ) ) ;
#49 = ORIENTED_EDGE ( 'NONE', *, *, #129, .T. ) ;
#50 = PERSON_AND_ORGANIZATION ( #92, #244 ) ;
#51 = SECURITY_CLASSIFICATION ( '', '', #77 ) ;
#52 = DATE_AND_TIME ( #196, #135 ) ;
#53 = EDGE_CURVE ( 'NONE', #116, #111, #163, .T. ) ;
#54 = CYLINDRICAL_SURFACE ( 'NONE', #126, 10.00000000000000178 ) ;
#55 = CARTESIAN_POINT ( 'NONE',  ( 0.000000000000000000, 0.000000000000000000, 8.000000000000000000 ) ) ;
#56 = FACE_OUTER_BOUND ( 'NONE', #89, .T. ) ;
#57 = APPLICATION_CONTEXT ( 'configuration controlled 3d designs of mechanical parts and assemblies' ) ;
#58 = SHAPE_DEFINITION_REPRESENTATION ( #145, #252 ) ;
#59 = CARTESIAN_POINT ( 'NONE',  ( -13.00000000000000178, 0.000000000000000000, 8.000000000000000000 ) ) ;
#60 = CARTESIAN_POINT ( 'NONE',  ( 0.000000000000000000, 0.000000000000000000, 0.000000000000000000 ) ) ;
#61 = CARTESIAN_POINT ( 'NONE',  ( 0.000000000000000000, 0.000000000000000000, 0.000000000000000000 ) ) ;
#62 = EDGE_CURVE ( 'NONE', #119, #111, #139, .T. ) ;
#63 = PRODUCT ( 'c245', 'c245', '', ( #36 ) ) ;
#64 = CC_DESIGN_APPROVAL ( #47, ( #215 ) ) ;
#65 = ORIENTED_EDGE ( 'NONE', *, *, #249, .T. ) ;
#66 = APPROVAL_ROLE ( '' ) ;
#67 = ORIENTED_EDGE ( 'NONE', *, *, #53, .F. ) ;
#68 = COORDINATED_UNIVERSAL_TIME_OFFSET ( 1, 0, .AHEAD. ) ;
#69 = AXIS2_PLACEMENT_3D ( 'NONE', #122, #197, #45 ) ;
#70 = VERTEX_POINT ( 'NONE', #40 ) ;
#71 = COORDINATED_UNIVERSAL_TIME_OFFSET ( 1, 0, .AHEAD. ) ;
#72 = CC_DESIGN_SECURITY_CLASSIFICATION ( #51, ( #106 ) ) ;
#73 = ADVANCED_FACE ( 'NONE', ( #199 ), #39, .F. ) ;
#74 = ORIENTED_EDGE ( 'NONE', *, *, #133, .F. ) ;
#75 = DIRECTION ( 'NONE',  ( 0.000000000000000000, 0.000000000000000000, 1.000000000000000000 ) ) ;
#76 = ORIENTED_EDGE ( 'NONE', *, *, #171, .F. ) ;
#77 = SECURITY_CLASSIFICATION_LEVEL ( 'unclassified' ) ;
#78 = DIRECTION ( 'NONE',  ( 1.000000000000000000, 0.000000000000000000, -0.000000000000000000 ) ) ;
#79 = AXIS2_PLACEMENT_3D ( 'NONE', #203, #251, #158 ) ;
#80 = CARTESIAN_POINT ( 'NONE',  ( 13.00000000000000178, 1.592040838891559293E-15, 0.000000000000000000 ) ) ;
#81 = PRODUCT_RELATED_PRODUCT_CATEGORY ( 'detail', '', ( #63 ) ) ;
#82 = DIRECTION ( 'NONE',  ( 0.000000000000000000, 0.000000000000000000, 1.000000000000000000 ) ) ;
#83 = DIRECTION ( 'NONE',  ( 1.000000000000000000, 0.000000000000000000, 0.000000000000000000 ) ) ;
#84 = DIRECTION ( 'NONE',  ( 0.000000000000000000, 0.000000000000000000, 1.000000000000000000 ) ) ;
#85 = DIRECTION ( 'NONE',  ( 0.000000000000000000, 0.000000000000000000, 1.000000000000000000 ) ) ;
#86 = CC_DESIGN_PERSON_AND_ORGANIZATION_ASSIGNMENT ( #210, #247, ( #215 ) ) ;
#87 = VECTOR ( 'NONE', #200, 1000.000000000000000 ) ;
#88 = CC_DESIGN_PERSON_AND_ORGANIZATION_ASSIGNMENT ( #8, #98, ( #106 ) ) ;
#89 = EDGE_LOOP ( 'NONE', ( #194, #76, #7, #37 ) ) ;
#90 = PERSON_AND_ORGANIZATION_ROLE ( 'classification_officer' ) ;
#91 = EDGE_LOOP ( 'NONE', ( #172, #192, #155, #49 ) ) ;
#92 = PERSON ( 'NEURÈENÝ', 'NEURÈENÝ', 'NEURÈENÝ', ('NEURÈENÝ'), ('NEURÈENÝ'), ('NEURÈENÝ') ) ;
#93 = EDGE_CURVE ( 'NONE', #70, #170, #204, .T. ) ;
#94 = VERTEX_POINT ( 'NONE', #22 ) ;
#95 = CALENDAR_DATE ( 2023, 12, 2 ) ;
#96 = UNCERTAINTY_MEASURE_WITH_UNIT (LENGTH_MEASURE( 1.000000000000000082E-05 ), #166, 'distance_accuracy_value', 'NONE');
#97 = DIRECTION ( 'NONE',  ( -1.000000000000000000, 0.000000000000000000, 0.000000000000000000 ) ) ;
#98 = PERSON_AND_ORGANIZATION_ROLE ( 'design_supplier' ) ;
#99 = CARTESIAN_POINT ( 'NONE',  ( 13.00000000000000178, 1.592040838891559293E-15, 8.000000000000000000 ) ) ;
#100 = CYLINDRICAL_SURFACE ( 'NONE', #79, 13.00000000000000178 ) ;
#101 = EDGE_CURVE ( 'NONE', #117, #116, #18, .T. ) ;
#102 = CLOSED_SHELL ( 'NONE', ( #4, #10, #27, #206, #73, #110, #123 ) ) ;
#103 = CARTESIAN_POINT ( 'NONE',  ( 0.000000000000000000, 0.000000000000000000, 200.0000000000000000 ) ) ;
#104 = CARTESIAN_POINT ( 'NONE',  ( -10.00000000000000178, 0.000000000000000000, 8.000000000000000000 ) ) ;
#105 = PLANE ( 'NONE',  #237 ) ;
#106 = PRODUCT_DEFINITION_FORMATION_WITH_SPECIFIED_SOURCE ( 'LIBOVOLNÝ', '', #63, .NOT_KNOWN. ) ;
#107 = APPROVAL_PERSON_ORGANIZATION ( #50, #191, #222 ) ;
#108 = DIRECTION ( 'NONE',  ( 1.000000000000000000, 0.000000000000000000, 0.000000000000000000 ) ) ;
#109 =( GEOMETRIC_REPRESENTATION_CONTEXT ( 3 ) GLOBAL_UNCERTAINTY_ASSIGNED_CONTEXT ( ( #96 ) ) GLOBAL_UNIT_ASSIGNED_CONTEXT ( ( #166, #243, #134 ) ) REPRESENTATION_CONTEXT ( 'NONE', 'WORKASPACE' ) );
#110 = ADVANCED_FACE ( 'NONE', ( #216 ), #41, .T. ) ;
#111 = VERTEX_POINT ( 'NONE', #80 ) ;
#112 = APPROVAL_DATE_TIME ( #173, #47 ) ;
#113 = FACE_OUTER_BOUND ( 'NONE', #14, .T. ) ;
#114 = CIRCLE ( 'NONE', #150, 13.00000000000000178 ) ;
#115 = DATE_TIME_ROLE ( 'classification_date' ) ;
#116 = VERTEX_POINT ( 'NONE', #248 ) ;
#117 = VERTEX_POINT ( 'NONE', #128 ) ;
#118 = PERSON_AND_ORGANIZATION ( #92, #244 ) ;
#119 = VERTEX_POINT ( 'NONE', #125 ) ;
#120 = PERSON_AND_ORGANIZATION_ROLE ( 'design_owner' ) ;
#121 = CIRCLE ( 'NONE', #250, 13.00000000000000178 ) ;
#122 = CARTESIAN_POINT ( 'NONE',  ( 0.000000000000000000, 0.000000000000000000, 8.000000000000000000 ) ) ;
#123 = ADVANCED_FACE ( 'NONE', ( #183 ), #105, .T. ) ;
#124 = DIRECTION ( 'NONE',  ( 1.000000000000000000, 0.000000000000000000, -0.000000000000000000 ) ) ;
#125 = CARTESIAN_POINT ( 'NONE',  ( 13.00000000000000178, 1.592040838891559293E-15, 8.000000000000000000 ) ) ;
#126 = AXIS2_PLACEMENT_3D ( 'NONE', #211, #195, #97 ) ;
#127 = DIRECTION ( 'NONE',  ( -0.000000000000000000, -0.000000000000000000, -1.000000000000000000 ) ) ;
#128 = CARTESIAN_POINT ( 'NONE',  ( -13.00000000000000178, 0.000000000000000000, 8.000000000000000000 ) ) ;
#129 = EDGE_CURVE ( 'NONE', #170, #70, #20, .T. ) ;
#130 = ORIENTED_EDGE ( 'NONE', *, *, #234, .F. ) ;
#131 = COORDINATED_UNIVERSAL_TIME_OFFSET ( 1, 0, .AHEAD. ) ;
#132 = AXIS2_PLACEMENT_3D ( 'NONE', #103, #142, #180 ) ;
#133 = EDGE_CURVE ( 'NONE', #119, #117, #121, .T. ) ;
#134 =( NAMED_UNIT ( * ) SI_UNIT ( $, .STERADIAN. ) SOLID_ANGLE_UNIT ( ) );
#135 = LOCAL_TIME ( 11, 36, 18.00000000000000000, #131 ) ;
#136 = PERSON_AND_ORGANIZATION_ROLE ( 'creator' ) ;
#137 = EDGE_LOOP ( 'NONE', ( #67, #130 ) ) ;
#138 = CARTESIAN_POINT ( 'NONE',  ( 0.000000000000000000, 0.000000000000000000, 8.000000000000000000 ) ) ;
#139 = LINE ( 'NONE', #99, #42 ) ;
#140 = CALENDAR_DATE ( 2023, 12, 2 ) ;
#141 = EDGE_CURVE ( 'NONE', #149, #70, #233, .T. ) ;
#142 = DIRECTION ( 'NONE',  ( -0.000000000000000000, -0.000000000000000000, -1.000000000000000000 ) ) ;
#143 = DIRECTION ( 'NONE',  ( -0.000000000000000000, -0.000000000000000000, -1.000000000000000000 ) ) ;
#144 = CARTESIAN_POINT ( 'NONE',  ( 0.000000000000000000, 0.000000000000000000, 200.0000000000000000 ) ) ;
#145 = PRODUCT_DEFINITION_SHAPE ( 'NONE', 'NONE',  #215 ) ;
#146 = AXIS2_PLACEMENT_3D ( 'NONE', #61, #205, #26 ) ;
#147 = DATE_AND_TIME ( #212, #213 ) ;
#148 = APPROVAL_STATUS ( 'not_yet_approved' ) ;
#149 = VERTEX_POINT ( 'NONE', #201 ) ;
#150 = AXIS2_PLACEMENT_3D ( 'NONE', #184, #255, #83 ) ;
#151 = DATE_TIME_ROLE ( 'creation_date' ) ;
#152 = LOCAL_TIME ( 11, 36, 18.00000000000000000, #68 ) ;
#153 = FACE_OUTER_BOUND ( 'NONE', #34, .T. ) ;
#154 = PERSON_AND_ORGANIZATION ( #92, #244 ) ;
#155 = ORIENTED_EDGE ( 'NONE', *, *, #6, .T. ) ;
#156 = PERSON_AND_ORGANIZATION ( #92, #244 ) ;
#157 = DIRECTION ( 'NONE',  ( 0.000000000000000000, 0.000000000000000000, 1.000000000000000000 ) ) ;
#158 = DIRECTION ( 'NONE',  ( -1.000000000000000000, 0.000000000000000000, 0.000000000000000000 ) ) ;
#159 = APPROVAL_DATE_TIME ( #202, #191 ) ;
#160 = CC_DESIGN_PERSON_AND_ORGANIZATION_ASSIGNMENT ( #156, #90, ( #51 ) ) ;
#161 = DIRECTION ( 'NONE',  ( 1.000000000000000000, 0.000000000000000000, 0.000000000000000000 ) ) ;
#162 = FACE_BOUND ( 'NONE', #226, .T. ) ;
#163 = CIRCLE ( 'NONE', #28, 13.00000000000000178 ) ;
#164 = COORDINATED_UNIVERSAL_TIME_OFFSET ( 1, 0, .AHEAD. ) ;
#165 = DIRECTION ( 'NONE',  ( 1.000000000000000000, 0.000000000000000000, -0.000000000000000000 ) ) ;
#166 =( LENGTH_UNIT ( ) NAMED_UNIT ( * ) SI_UNIT ( .MILLI., .METRE. ) );
#167 = AXIS2_PLACEMENT_3D ( 'NONE', #253, #157, #229 ) ;
#168 = CIRCLE ( 'NONE', #146, 13.00000000000000178 ) ;
#169 = ORIENTED_EDGE ( 'NONE', *, *, #62, .T. ) ;
#170 = VERTEX_POINT ( 'NONE', #104 ) ;
#171 = EDGE_CURVE ( 'NONE', #117, #119, #114, .T. ) ;
#172 = ORIENTED_EDGE ( 'NONE', *, *, #141, .F. ) ;
#173 = DATE_AND_TIME ( #95, #38 ) ;
#174 = AXIS2_PLACEMENT_3D ( 'NONE', #19, #23, #124 ) ;
#175 = APPROVAL_PERSON_ORGANIZATION ( #179, #47, #66 ) ;
#176 = APPROVAL_STATUS ( 'not_yet_approved' ) ;
#177 = CC_DESIGN_DATE_AND_TIME_ASSIGNMENT ( #33, #115, ( #51 ) ) ;
#178 = CARTESIAN_POINT ( 'NONE',  ( -10.00000000000000178, 0.000000000000000000, 200.0000000000000000 ) ) ;
#179 = PERSON_AND_ORGANIZATION ( #92, #244 ) ;
#180 = DIRECTION ( 'NONE',  ( -1.000000000000000000, 0.000000000000000000, 0.000000000000000000 ) ) ;
#181 = CARTESIAN_POINT ( 'NONE',  ( 0.000000000000000000, 0.000000000000000000, 200.0000000000000000 ) ) ;
#182 = APPROVAL_PERSON_ORGANIZATION ( #154, #220, #227 ) ;
#183 = FACE_OUTER_BOUND ( 'NONE', #12, .T. ) ;
#184 = CARTESIAN_POINT ( 'NONE',  ( 0.000000000000000000, 0.000000000000000000, 8.000000000000000000 ) ) ;
#185 = PLANE ( 'NONE',  #21 ) ;
#186 = APPLICATION_CONTEXT ( 'configuration controlled 3d designs of mechanical parts and assemblies' ) ;
#187 = DIRECTION ( 'NONE',  ( 0.000000000000000000, 0.000000000000000000, 1.000000000000000000 ) ) ;
#188 = AXIS2_PLACEMENT_3D ( 'NONE', #144, #187, #108 ) ;
#189 = CC_DESIGN_APPROVAL ( #191, ( #51 ) ) ;
#190 = ORIENTED_EDGE ( 'NONE', *, *, #6, .F. ) ;
#191 = APPROVAL ( #148, 'NEURÈENÝ' ) ;
#192 = ORIENTED_EDGE ( 'NONE', *, *, #249, .F. ) ;
#193 = ORIENTED_EDGE ( 'NONE', *, *, #93, .T. ) ;
#194 = ORIENTED_EDGE ( 'NONE', *, *, #62, .F. ) ;
#195 = DIRECTION ( 'NONE',  ( -0.000000000000000000, -0.000000000000000000, -1.000000000000000000 ) ) ;
#196 = CALENDAR_DATE ( 2023, 12, 2 ) ;
#197 = DIRECTION ( 'NONE',  ( 0.000000000000000000, 0.000000000000000000, 1.000000000000000000 ) ) ;
#198 = DESIGN_CONTEXT ( 'detailed design', #57, 'design' ) ;
#199 = FACE_OUTER_BOUND ( 'NONE', #137, .T. ) ;
#200 = DIRECTION ( 'NONE',  ( -0.000000000000000000, -0.000000000000000000, -1.000000000000000000 ) ) ;
#201 = CARTESIAN_POINT ( 'NONE',  ( 10.00000000000000178, 1.224646799147353454E-15, 200.0000000000000000 ) ) ;
#202 = DATE_AND_TIME ( #140, #230 ) ;
#203 = CARTESIAN_POINT ( 'NONE',  ( 0.000000000000000000, 0.000000000000000000, 8.000000000000000000 ) ) ;
#204 = CIRCLE ( 'NONE', #69, 10.00000000000000178 ) ;
#205 = DIRECTION ( 'NONE',  ( 0.000000000000000000, 0.000000000000000000, 1.000000000000000000 ) ) ;
#206 = ADVANCED_FACE ( 'NONE', ( #162, #235 ), #185, .T. ) ;
#207 = ORIENTED_EDGE ( 'NONE', *, *, #231, .T. ) ;
#208 = APPLICATION_PROTOCOL_DEFINITION ( 'international standard', 'config_control_design', 1994, #57 ) ;
#209 = ORIENTED_EDGE ( 'NONE', *, *, #234, .T. ) ;
#210 = PERSON_AND_ORGANIZATION ( #92, #244 ) ;
#211 = CARTESIAN_POINT ( 'NONE',  ( 0.000000000000000000, 0.000000000000000000, 200.0000000000000000 ) ) ;
#212 = CALENDAR_DATE ( 2023, 12, 2 ) ;
#213 = LOCAL_TIME ( 11, 36, 18.00000000000000000, #71 ) ;
#214 = DIRECTION ( 'NONE',  ( -0.000000000000000000, -0.000000000000000000, -1.000000000000000000 ) ) ;
#215 = PRODUCT_DEFINITION ( 'NEZNÁMÝ', '', #106, #198 ) ;
#216 = FACE_OUTER_BOUND ( 'NONE', #91, .T. ) ;
#217 = DIRECTION ( 'NONE',  ( 0.000000000000000000, 0.000000000000000000, 1.000000000000000000 ) ) ;
#218 = DIRECTION ( 'NONE',  ( -1.000000000000000000, 0.000000000000000000, 0.000000000000000000 ) ) ;
#219 = CC_DESIGN_DATE_AND_TIME_ASSIGNMENT ( #147, #151, ( #215 ) ) ;
#220 = APPROVAL ( #176, 'NEURÈENÝ' ) ;
#221 = ORIENTED_EDGE ( 'NONE', *, *, #171, .T. ) ;
#222 = APPROVAL_ROLE ( '' ) ;
#223 = CC_DESIGN_PERSON_AND_ORGANIZATION_ASSIGNMENT ( #118, #120, ( #63 ) ) ;
#224 = AXIS2_PLACEMENT_3D ( 'NONE', #236, #85, #3 ) ;
#225 = APPLICATION_PROTOCOL_DEFINITION ( 'international standard', 'config_control_design', 1994, #186 ) ;
#226 = EDGE_LOOP ( 'NONE', ( #9, #242 ) ) ;
#227 = APPROVAL_ROLE ( '' ) ;
#228 = LINE ( 'NONE', #178, #25 ) ;
#229 = DIRECTION ( 'NONE',  ( 1.000000000000000000, 0.000000000000000000, 0.000000000000000000 ) ) ;
#230 = LOCAL_TIME ( 11, 36, 18.00000000000000000, #164 ) ;
#231 = EDGE_CURVE ( 'NONE', #149, #94, #2, .T. ) ;
#232 = DIRECTION ( 'NONE',  ( 1.000000000000000000, 0.000000000000000000, 0.000000000000000000 ) ) ;
#233 = LINE ( 'NONE', #44, #46 ) ;
#234 = EDGE_CURVE ( 'NONE', #111, #116, #168, .T. ) ;
#235 = FACE_OUTER_BOUND ( 'NONE', #245, .T. ) ;
#236 = CARTESIAN_POINT ( 'NONE',  ( 0.000000000000000000, 0.000000000000000000, 200.0000000000000000 ) ) ;
#237 = AXIS2_PLACEMENT_3D ( 'NONE', #181, #217, #78 ) ;
#238 = CC_DESIGN_PERSON_AND_ORGANIZATION_ASSIGNMENT ( #17, #136, ( #106 ) ) ;
#239 = ORIENTED_EDGE ( 'NONE', *, *, #133, .T. ) ;
#240 = ORIENTED_EDGE ( 'NONE', *, *, #101, .F. ) ;
#241 = APPROVAL_DATE_TIME ( #52, #220 ) ;
#242 = ORIENTED_EDGE ( 'NONE', *, *, #93, .F. ) ;
#243 =( NAMED_UNIT ( * ) PLANE_ANGLE_UNIT ( ) SI_UNIT ( $, .RADIAN. ) );
#244 = ORGANIZATION ( 'NEURÈENÝ', 'NEURÈENÝ', '' ) ;
#245 = EDGE_LOOP ( 'NONE', ( #221, #239 ) ) ;
#246 = CARTESIAN_POINT ( 'NONE',  ( 0.000000000000000000, 0.000000000000000000, 0.000000000000000000 ) ) ;
#247 = PERSON_AND_ORGANIZATION_ROLE ( 'creator' ) ;
#248 = CARTESIAN_POINT ( 'NONE',  ( -13.00000000000000178, 0.000000000000000000, 0.000000000000000000 ) ) ;
#249 = EDGE_CURVE ( 'NONE', #94, #149, #43, .T. ) ;
#250 = AXIS2_PLACEMENT_3D ( 'NONE', #55, #82, #161 ) ;
#251 = DIRECTION ( 'NONE',  ( -0.000000000000000000, -0.000000000000000000, -1.000000000000000000 ) ) ;
#252 = ADVANCED_BREP_SHAPE_REPRESENTATION ( 'c245', ( #254, #29 ), #109 ) ;
#253 = CARTESIAN_POINT ( 'NONE',  ( 0.000000000000000000, 0.000000000000000000, 8.000000000000000000 ) ) ;
#254 = MANIFOLD_SOLID_BREP ( 'Pøidat vysunutím3', #102 ) ;
#255 = DIRECTION ( 'NONE',  ( 0.000000000000000000, 0.000000000000000000, 1.000000000000000000 ) ) ;
ENDSEC;
END-ISO-10303-21;
