ISO-10303-21;
HEADER;
FILE_DESCRIPTION (( 'STEP AP203' ),
    '1' );
FILE_NAME ('f667.STEP',
    '2022-07-07T12:20:54',
    ( '' ),
    ( '' ),
    'SwSTEP 2.0',
    'SolidWorks 2019',
    '' );
FILE_SCHEMA (( 'CONFIG_CONTROL_DESIGN' ));
ENDSEC;

DATA;
#1 = CARTESIAN_POINT ( 'NONE',  ( -11.00000000000000000, 0.000000000000000000, 0.000000000000000000 ) ) ;
#2 = CYLINDRICAL_SURFACE ( 'NONE', #108, 11.00000000000000000 ) ;
#3 = EDGE_CURVE ( 'NONE', #107, #238, #178, .T. ) ;
#4 = DIRECTION ( 'NONE',  ( 0.000000000000000000, 0.000000000000000000, 1.000000000000000000 ) ) ;
#5 = CC_DESIGN_PERSON_AND_ORGANIZATION_ASSIGNMENT ( #11, #98, ( #239 ) ) ;
#6 = FACE_OUTER_BOUND ( 'NONE', #144, .T. ) ;
#7 = CARTESIAN_POINT ( 'NONE',  ( 0.000000000000000000, 0.000000000000000000, 7.000000000000000000 ) ) ;
#8 = CIRCLE ( 'NONE', #132, 8.000000000000000000 ) ;
#9 = CC_DESIGN_APPROVAL ( #231, ( #287 ) ) ;
#10 = ORIENTED_EDGE ( 'NONE', *, *, #83, .T. ) ;
#11 = PERSON_AND_ORGANIZATION ( #266, #295 ) ;
#12 = DIRECTION ( 'NONE',  ( 0.000000000000000000, 0.000000000000000000, 1.000000000000000000 ) ) ;
#13 = EDGE_CURVE ( 'NONE', #250, #109, #149, .T. ) ;
#14 = CALENDAR_DATE ( 2022, 7, 7 ) ;
#15 = PERSON_AND_ORGANIZATION ( #266, #295 ) ;
#16 = EDGE_LOOP ( 'NONE', ( #116, #69, #230, #193 ) ) ;
#17 = LOCAL_TIME ( 14, 20, 54.00000000000000000, #41 ) ;
#18 =( NAMED_UNIT ( * ) PLANE_ANGLE_UNIT ( ) SI_UNIT ( $, .RADIAN. ) );
#19 = DIRECTION ( 'NONE',  ( 1.000000000000000000, 0.000000000000000000, 0.000000000000000000 ) ) ;
#20 = APPROVAL_DATE_TIME ( #140, #231 ) ;
#21 = EDGE_LOOP ( 'NONE', ( #273, #194 ) ) ;
#22 = LINE ( 'NONE', #54, #104 ) ;
#23 = CC_DESIGN_APPROVAL ( #124, ( #133 ) ) ;
#24 = PERSON_AND_ORGANIZATION ( #266, #295 ) ;
#25 = CARTESIAN_POINT ( 'NONE',  ( 0.000000000000000000, 0.000000000000000000, 7.000000000000000000 ) ) ;
#26 = DIRECTION ( 'NONE',  ( -0.000000000000000000, -0.000000000000000000, -1.000000000000000000 ) ) ;
#27 = CARTESIAN_POINT ( 'NONE',  ( 0.000000000000000000, 0.000000000000000000, 167.0000000000000000 ) ) ;
#28 = PRODUCT_RELATED_PRODUCT_CATEGORY ( 'detail', '', ( #88 ) ) ;
#29 = DIRECTION ( 'NONE',  ( 0.000000000000000000, 0.000000000000000000, 1.000000000000000000 ) ) ;
#30 = EDGE_CURVE ( 'NONE', #120, #142, #66, .T. ) ;
#31 = CARTESIAN_POINT ( 'NONE',  ( -8.000000000000000000, 0.000000000000000000, 167.0000000000000000 ) ) ;
#32 = CC_DESIGN_PERSON_AND_ORGANIZATION_ASSIGNMENT ( #262, #48, ( #133 ) ) ;
#33 = ORIENTED_EDGE ( 'NONE', *, *, #96, .F. ) ;
#34 = APPLICATION_CONTEXT ( 'configuration controlled 3d designs of mechanical parts and assemblies' ) ;
#35 = ORIENTED_EDGE ( 'NONE', *, *, #159, .F. ) ;
#36 = AXIS2_PLACEMENT_3D ( 'NONE', #135, #202, #274 ) ;
#37 = EDGE_CURVE ( 'NONE', #257, #109, #81, .T. ) ;
#38 = SHAPE_DEFINITION_REPRESENTATION ( #251, #70 ) ;
#39 = APPROVAL_STATUS ( 'not_yet_approved' ) ;
#40 = ORIENTED_EDGE ( 'NONE', *, *, #93, .T. ) ;
#41 = COORDINATED_UNIVERSAL_TIME_OFFSET ( 1, 0, .AHEAD. ) ;
#42 = AXIS2_PLACEMENT_3D ( 'NONE', #180, #304, #259 ) ;
#43 = CARTESIAN_POINT ( 'NONE',  ( 0.000000000000000000, 0.000000000000000000, 7.200000000000011724 ) ) ;
#44 = AXIS2_PLACEMENT_3D ( 'NONE', #172, #153, #103 ) ;
#45 = CARTESIAN_POINT ( 'NONE',  ( 0.000000000000000000, 0.000000000000000000, 7.000000000000000000 ) ) ;
#46 = EDGE_CURVE ( 'NONE', #142, #250, #227, .T. ) ;
#47 = EDGE_LOOP ( 'NONE', ( #222, #136 ) ) ;
#48 = PERSON_AND_ORGANIZATION_ROLE ( 'design_supplier' ) ;
#49 = CIRCLE ( 'NONE', #217, 8.200000000000001066 ) ;
#50 = DIRECTION ( 'NONE',  ( 0.000000000000000000, 0.000000000000000000, 1.000000000000000000 ) ) ;
#51 = FACE_OUTER_BOUND ( 'NONE', #233, .T. ) ;
#52 = CC_DESIGN_DATE_AND_TIME_ASSIGNMENT ( #160, #110, ( #239 ) ) ;
#53 = DIRECTION ( 'NONE',  ( -1.000000000000000000, 0.000000000000000000, 0.000000000000000000 ) ) ;
#54 = CARTESIAN_POINT ( 'NONE',  ( 8.000000000000000000, 9.797174393178825657E-16, 167.0000000000000000 ) ) ;
#55 = EDGE_CURVE ( 'NONE', #298, #120, #112, .T. ) ;
#56 = AXIS2_PLACEMENT_3D ( 'NONE', #166, #29, #190 ) ;
#57 = CARTESIAN_POINT ( 'NONE',  ( -11.00000000000000000, 0.000000000000000000, 7.000000000000000000 ) ) ;
#58 = FACE_OUTER_BOUND ( 'NONE', #47, .T. ) ;
#59 = AXIS2_PLACEMENT_3D ( 'NONE', #196, #272, #218 ) ;
#60 = APPROVAL_PERSON_ORGANIZATION ( #254, #223, #197 ) ;
#61 = ADVANCED_FACE ( 'NONE', ( #162 ), #118, .F. ) ;
#62 = AXIS2_PLACEMENT_3D ( 'NONE', #25, #164, #161 ) ;
#63 = UNCERTAINTY_MEASURE_WITH_UNIT (LENGTH_MEASURE( 1.000000000000000082E-05 ), #249, 'distance_accuracy_value', 'NONE');
#64 = DIRECTION ( 'NONE',  ( 1.000000000000000000, 0.000000000000000000, -0.000000000000000000 ) ) ;
#65 = MECHANICAL_CONTEXT ( 'NONE', #34, 'mechanical' ) ;
#66 = LINE ( 'NONE', #73, #220 ) ;
#67 = ORIENTED_EDGE ( 'NONE', *, *, #46, .T. ) ;
#68 = EDGE_CURVE ( 'NONE', #276, #107, #84, .T. ) ;
#69 = ORIENTED_EDGE ( 'NONE', *, *, #127, .T. ) ;
#70 = ADVANCED_BREP_SHAPE_REPRESENTATION ( 'f667', ( #176, #36 ), #71 ) ;
#71 =( GEOMETRIC_REPRESENTATION_CONTEXT ( 3 ) GLOBAL_UNCERTAINTY_ASSIGNED_CONTEXT ( ( #63 ) ) GLOBAL_UNIT_ASSIGNED_CONTEXT ( ( #249, #18, #303 ) ) REPRESENTATION_CONTEXT ( 'NONE', 'WORKASPACE' ) );
#72 = PERSON_AND_ORGANIZATION ( #266, #295 ) ;
#73 = CARTESIAN_POINT ( 'NONE',  ( -8.000000000000000000, 0.000000000000000000, 167.0000000000000000 ) ) ;
#74 = PERSON_AND_ORGANIZATION_ROLE ( 'creator' ) ;
#75 = DIRECTION ( 'NONE',  ( 1.000000000000000000, 0.000000000000000000, 0.000000000000000000 ) ) ;
#76 = FACE_OUTER_BOUND ( 'NONE', #184, .T. ) ;
#77 = CIRCLE ( 'NONE', #154, 11.00000000000000000 ) ;
#78 = DIRECTION ( 'NONE',  ( -0.000000000000000000, -0.000000000000000000, -1.000000000000000000 ) ) ;
#79 = CARTESIAN_POINT ( 'NONE',  ( 0.000000000000000000, 0.000000000000000000, 167.0000000000000000 ) ) ;
#80 = DIRECTION ( 'NONE',  ( -0.000000000000000000, -0.000000000000000000, -1.000000000000000000 ) ) ;
#81 = CIRCLE ( 'NONE', #62, 8.200000000000001066 ) ;
#82 = DIRECTION ( 'NONE',  ( -1.000000000000000000, 0.000000000000000000, 0.000000000000000000 ) ) ;
#83 = EDGE_CURVE ( 'NONE', #276, #263, #199, .T. ) ;
#84 = CIRCLE ( 'NONE', #170, 11.00000000000000000 ) ;
#85 = ORIENTED_EDGE ( 'NONE', *, *, #55, .T. ) ;
#86 = EDGE_CURVE ( 'NONE', #298, #250, #22, .T. ) ;
#87 = PLANE ( 'NONE',  #258 ) ;
#88 = PRODUCT ( 'f667', 'f667', '', ( #65 ) ) ;
#89 = CIRCLE ( 'NONE', #167, 8.000000000000000000 ) ;
#90 = ORIENTED_EDGE ( 'NONE', *, *, #195, .T. ) ;
#91 = CALENDAR_DATE ( 2022, 7, 7 ) ;
#92 = DIRECTION ( 'NONE',  ( 0.000000000000000000, 0.000000000000000000, 1.000000000000000000 ) ) ;
#93 = EDGE_CURVE ( 'NONE', #109, #257, #49, .T. ) ;
#94 = ORIENTED_EDGE ( 'NONE', *, *, #86, .T. ) ;
#95 = ORIENTED_EDGE ( 'NONE', *, *, #55, .F. ) ;
#96 = EDGE_CURVE ( 'NONE', #120, #298, #89, .T. ) ;
#97 = ORIENTED_EDGE ( 'NONE', *, *, #86, .F. ) ;
#98 = PERSON_AND_ORGANIZATION_ROLE ( 'classification_officer' ) ;
#99 = DIRECTION ( 'NONE',  ( 0.000000000000000000, 0.000000000000000000, 1.000000000000000000 ) ) ;
#100 = FACE_BOUND ( 'NONE', #203, .T. ) ;
#101 = FACE_OUTER_BOUND ( 'NONE', #156, .T. ) ;
#102 = DIRECTION ( 'NONE',  ( 1.000000000000000000, 0.000000000000000000, 0.000000000000000000 ) ) ;
#103 = DIRECTION ( 'NONE',  ( -1.000000000000000000, 0.000000000000000000, 0.000000000000000000 ) ) ;
#104 = VECTOR ( 'NONE', #123, 1000.000000000000000 ) ;
#105 = APPLICATION_CONTEXT ( 'configuration controlled 3d designs of mechanical parts and assemblies' ) ;
#106 = CC_DESIGN_PERSON_AND_ORGANIZATION_ASSIGNMENT ( #115, #74, ( #287 ) ) ;
#107 = VERTEX_POINT ( 'NONE', #151 ) ;
#108 = AXIS2_PLACEMENT_3D ( 'NONE', #7, #78, #169 ) ;
#109 = VERTEX_POINT ( 'NONE', #214 ) ;
#110 = DATE_TIME_ROLE ( 'classification_date' ) ;
#111 = COORDINATED_UNIVERSAL_TIME_OFFSET ( 1, 0, .AHEAD. ) ;
#112 = CIRCLE ( 'NONE', #42, 8.000000000000000000 ) ;
#113 = DIRECTION ( 'NONE',  ( 0.000000000000000000, 0.000000000000000000, -1.000000000000000000 ) ) ;
#114 = DIRECTION ( 'NONE',  ( 0.000000000000000000, 0.000000000000000000, 1.000000000000000000 ) ) ;
#115 = PERSON_AND_ORGANIZATION ( #266, #295 ) ;
#116 = ORIENTED_EDGE ( 'NONE', *, *, #46, .F. ) ;
#117 = ADVANCED_FACE ( 'NONE', ( #215 ), #216, .T. ) ;
#118 = TOROIDAL_SURFACE ( 'NONE', #213, 8.200000000000001066, 0.2000000000000000111 ) ;
#119 = APPLICATION_PROTOCOL_DEFINITION ( 'international standard', 'config_control_design', 1994, #34 ) ;
#120 = VERTEX_POINT ( 'NONE', #31 ) ;
#121 = FACE_OUTER_BOUND ( 'NONE', #21, .T. ) ;
#122 = DIRECTION ( 'NONE',  ( 1.224646799147353207E-16, 1.000000000000000000, -0.000000000000000000 ) ) ;
#123 = DIRECTION ( 'NONE',  ( -0.000000000000000000, -0.000000000000000000, -1.000000000000000000 ) ) ;
#124 = APPROVAL ( #208, 'NEURÈENÝ' ) ;
#125 = CARTESIAN_POINT ( 'NONE',  ( -8.200000000000001066, 1.004210375300829674E-15, 7.000000000000006217 ) ) ;
#126 = PLANE ( 'NONE',  #200 ) ;
#127 = EDGE_CURVE ( 'NONE', #142, #257, #158, .T. ) ;
#128 = LOCAL_TIME ( 14, 20, 54.00000000000000000, #205 ) ;
#129 = FACE_OUTER_BOUND ( 'NONE', #16, .T. ) ;
#130 = CARTESIAN_POINT ( 'NONE',  ( 8.000000000000000000, 9.797174393178825657E-16, 167.0000000000000000 ) ) ;
#131 = CC_DESIGN_PERSON_AND_ORGANIZATION_ASSIGNMENT ( #138, #232, ( #88 ) ) ;
#132 = AXIS2_PLACEMENT_3D ( 'NONE', #185, #267, #102 ) ;
#133 = PRODUCT_DEFINITION_FORMATION_WITH_SPECIFIED_SOURCE ( 'LIBOVOLNÝ', '', #88, .NOT_KNOWN. ) ;
#134 = ORIENTED_EDGE ( 'NONE', *, *, #3, .T. ) ;
#135 = CARTESIAN_POINT ( 'NONE',  ( 0.000000000000000000, 0.000000000000000000, 0.000000000000000000 ) ) ;
#136 = ORIENTED_EDGE ( 'NONE', *, *, #159, .T. ) ;
#137 = CALENDAR_DATE ( 2022, 7, 7 ) ;
#138 = PERSON_AND_ORGANIZATION ( #266, #295 ) ;
#139 = ORIENTED_EDGE ( 'NONE', *, *, #30, .F. ) ;
#140 = DATE_AND_TIME ( #14, #248 ) ;
#141 = ORIENTED_EDGE ( 'NONE', *, *, #270, .T. ) ;
#142 = VERTEX_POINT ( 'NONE', #171 ) ;
#143 = DATE_AND_TIME ( #198, #243 ) ;
#144 = EDGE_LOOP ( 'NONE', ( #300, #85 ) ) ;
#145 = AXIS2_PLACEMENT_3D ( 'NONE', #284, #191, #245 ) ;
#146 = CARTESIAN_POINT ( 'NONE',  ( 0.000000000000000000, 0.000000000000000000, 167.0000000000000000 ) ) ;
#147 = ADVANCED_FACE ( 'NONE', ( #100, #58 ), #211, .T. ) ;
#148 = DIRECTION ( 'NONE',  ( 0.000000000000000000, 0.000000000000000000, 1.000000000000000000 ) ) ;
#149 = CIRCLE ( 'NONE', #290, 0.1999999999999996503 ) ;
#150 = VECTOR ( 'NONE', #281, 1000.000000000000000 ) ;
#151 = CARTESIAN_POINT ( 'NONE',  ( 11.00000000000000000, 1.347111479062088405E-15, 7.000000000000000000 ) ) ;
#152 = DIRECTION ( 'NONE',  ( 1.000000000000000000, 0.000000000000000000, 0.000000000000000000 ) ) ;
#153 = DIRECTION ( 'NONE',  ( -0.000000000000000000, -0.000000000000000000, -1.000000000000000000 ) ) ;
#154 = AXIS2_PLACEMENT_3D ( 'NONE', #168, #244, #240 ) ;
#155 = APPROVAL_PERSON_ORGANIZATION ( #72, #124, #282 ) ;
#156 = EDGE_LOOP ( 'NONE', ( #35, #134, #90, #221 ) ) ;
#157 = ORIENTED_EDGE ( 'NONE', *, *, #293, .T. ) ;
#158 = CIRCLE ( 'NONE', #237, 0.2000000000000005107 ) ;
#159 = EDGE_CURVE ( 'NONE', #107, #276, #247, .T. ) ;
#160 = DATE_AND_TIME ( #137, #280 ) ;
#161 = DIRECTION ( 'NONE',  ( 1.000000000000000000, 0.000000000000000000, 0.000000000000000000 ) ) ;
#162 = FACE_OUTER_BOUND ( 'NONE', #307, .T. ) ;
#163 = DIRECTION ( 'NONE',  ( -0.000000000000000000, -0.000000000000000000, -1.000000000000000000 ) ) ;
#164 = DIRECTION ( 'NONE',  ( -0.000000000000000000, -0.000000000000000000, -1.000000000000000000 ) ) ;
#165 = PERSON_AND_ORGANIZATION_ROLE ( 'creator' ) ;
#166 = CARTESIAN_POINT ( 'NONE',  ( 0.000000000000000000, 0.000000000000000000, 7.000000000000000000 ) ) ;
#167 = AXIS2_PLACEMENT_3D ( 'NONE', #79, #99, #269 ) ;
#168 = CARTESIAN_POINT ( 'NONE',  ( 0.000000000000000000, 0.000000000000000000, 0.000000000000000000 ) ) ;
#169 = DIRECTION ( 'NONE',  ( -1.000000000000000000, 0.000000000000000000, 0.000000000000000000 ) ) ;
#170 = AXIS2_PLACEMENT_3D ( 'NONE', #45, #114, #255 ) ;
#171 = CARTESIAN_POINT ( 'NONE',  ( -8.000000000000000000, 0.000000000000000000, 7.200000000000011724 ) ) ;
#172 = CARTESIAN_POINT ( 'NONE',  ( 0.000000000000000000, 0.000000000000000000, 7.000000000000000000 ) ) ;
#173 = CC_DESIGN_DATE_AND_TIME_ASSIGNMENT ( #181, #306, ( #287 ) ) ;
#174 = EDGE_LOOP ( 'NONE', ( #97, #33, #252, #67 ) ) ;
#175 = CARTESIAN_POINT ( 'NONE',  ( 0.000000000000000000, 0.000000000000000000, 0.000000000000000000 ) ) ;
#176 = MANIFOLD_SOLID_BREP ( 'Zaoblit1', #207 ) ;
#177 = CARTESIAN_POINT ( 'NONE',  ( -11.00000000000000000, 0.000000000000000000, 7.000000000000000000 ) ) ;
#178 = LINE ( 'NONE', #226, #150 ) ;
#179 = APPLICATION_PROTOCOL_DEFINITION ( 'international standard', 'config_control_design', 1994, #105 ) ;
#180 = CARTESIAN_POINT ( 'NONE',  ( 0.000000000000000000, 0.000000000000000000, 167.0000000000000000 ) ) ;
#181 = DATE_AND_TIME ( #279, #128 ) ;
#182 = DIRECTION ( 'NONE',  ( 0.000000000000000000, -1.000000000000000000, 0.000000000000000000 ) ) ;
#183 = AXIS2_PLACEMENT_3D ( 'NONE', #187, #192, #53 ) ;
#184 = EDGE_LOOP ( 'NONE', ( #95, #94, #141, #139 ) ) ;
#185 = CARTESIAN_POINT ( 'NONE',  ( 0.000000000000000000, 0.000000000000000000, 7.200000000000011724 ) ) ;
#186 = COORDINATED_UNIVERSAL_TIME_OFFSET ( 1, 0, .AHEAD. ) ;
#187 = CARTESIAN_POINT ( 'NONE',  ( 0.000000000000000000, 0.000000000000000000, 167.0000000000000000 ) ) ;
#188 = CIRCLE ( 'NONE', #145, 11.00000000000000000 ) ;
#189 = CC_DESIGN_SECURITY_CLASSIFICATION ( #239, ( #133 ) ) ;
#190 = DIRECTION ( 'NONE',  ( 1.000000000000000000, 0.000000000000000000, -0.000000000000000000 ) ) ;
#191 = DIRECTION ( 'NONE',  ( 0.000000000000000000, 0.000000000000000000, 1.000000000000000000 ) ) ;
#192 = DIRECTION ( 'NONE',  ( -0.000000000000000000, -0.000000000000000000, -1.000000000000000000 ) ) ;
#193 = ORIENTED_EDGE ( 'NONE', *, *, #13, .F. ) ;
#194 = ORIENTED_EDGE ( 'NONE', *, *, #195, .F. ) ;
#195 = EDGE_CURVE ( 'NONE', #238, #263, #188, .T. ) ;
#196 = CARTESIAN_POINT ( 'NONE',  ( 0.000000000000000000, 0.000000000000000000, 7.200000000000011724 ) ) ;
#197 = APPROVAL_ROLE ( '' ) ;
#198 = CALENDAR_DATE ( 2022, 7, 7 ) ;
#199 = LINE ( 'NONE', #177, #291 ) ;
#200 = AXIS2_PLACEMENT_3D ( 'NONE', #146, #4, #242 ) ;
#201 = ORIENTED_EDGE ( 'NONE', *, *, #13, .T. ) ;
#202 = DIRECTION ( 'NONE',  ( 0.000000000000000000, 0.000000000000000000, 1.000000000000000000 ) ) ;
#203 = EDGE_LOOP ( 'NONE', ( #40, #301 ) ) ;
#204 = CC_DESIGN_PERSON_AND_ORGANIZATION_ASSIGNMENT ( #24, #165, ( #133 ) ) ;
#205 = COORDINATED_UNIVERSAL_TIME_OFFSET ( 1, 0, .AHEAD. ) ;
#206 = DIRECTION ( 'NONE',  ( -0.000000000000000000, -0.000000000000000000, -1.000000000000000000 ) ) ;
#207 = CLOSED_SHELL ( 'NONE', ( #302, #235, #261, #256, #147, #296, #117, #246, #61 ) ) ;
#208 = APPROVAL_STATUS ( 'not_yet_approved' ) ;
#209 = AXIS2_PLACEMENT_3D ( 'NONE', #27, #80, #82 ) ;
#210 = ORIENTED_EDGE ( 'NONE', *, *, #270, .F. ) ;
#211 = PLANE ( 'NONE',  #56 ) ;
#212 = DIRECTION ( 'NONE',  ( 1.000000000000000000, 0.000000000000000000, 0.000000000000000000 ) ) ;
#213 = AXIS2_PLACEMENT_3D ( 'NONE', #260, #50, #19 ) ;
#214 = CARTESIAN_POINT ( 'NONE',  ( 8.200000000000001066, 0.000000000000000000, 7.000000000000006217 ) ) ;
#215 = FACE_OUTER_BOUND ( 'NONE', #174, .T. ) ;
#216 = CYLINDRICAL_SURFACE ( 'NONE', #183, 8.000000000000000000 ) ;
#217 = AXIS2_PLACEMENT_3D ( 'NONE', #265, #26, #152 ) ;
#218 = DIRECTION ( 'NONE',  ( 1.000000000000000000, 0.000000000000000000, 0.000000000000000000 ) ) ;
#219 = DESIGN_CONTEXT ( 'detailed design', #105, 'design' ) ;
#220 = VECTOR ( 'NONE', #163, 1000.000000000000000 ) ;
#221 = ORIENTED_EDGE ( 'NONE', *, *, #83, .F. ) ;
#222 = ORIENTED_EDGE ( 'NONE', *, *, #68, .T. ) ;
#223 = APPROVAL ( #39, 'NEURÈENÝ' ) ;
#224 = COORDINATED_UNIVERSAL_TIME_OFFSET ( 1, 0, .AHEAD. ) ;
#225 = SECURITY_CLASSIFICATION_LEVEL ( 'unclassified' ) ;
#226 = CARTESIAN_POINT ( 'NONE',  ( 11.00000000000000000, 1.347111479062088405E-15, 7.000000000000000000 ) ) ;
#227 = CIRCLE ( 'NONE', #271, 8.000000000000000000 ) ;
#228 = APPROVAL_DATE_TIME ( #297, #223 ) ;
#229 = APPROVAL_STATUS ( 'not_yet_approved' ) ;
#230 = ORIENTED_EDGE ( 'NONE', *, *, #93, .F. ) ;
#231 = APPROVAL ( #229, 'NEURÈENÝ' ) ;
#232 = PERSON_AND_ORGANIZATION_ROLE ( 'design_owner' ) ;
#233 = EDGE_LOOP ( 'NONE', ( #294, #275, #10, #157 ) ) ;
#234 = CARTESIAN_POINT ( 'NONE',  ( 8.200000000000001066, 0.000000000000000000, 7.200000000000011724 ) ) ;
#235 = ADVANCED_FACE ( 'NONE', ( #76 ), #292, .T. ) ;
#236 = APPROVAL_DATE_TIME ( #143, #124 ) ;
#237 = AXIS2_PLACEMENT_3D ( 'NONE', #285, #122, #289 ) ;
#238 = VERTEX_POINT ( 'NONE', #264 ) ;
#239 = SECURITY_CLASSIFICATION ( '', '', #225 ) ;
#240 = DIRECTION ( 'NONE',  ( 1.000000000000000000, 0.000000000000000000, 0.000000000000000000 ) ) ;
#241 = CARTESIAN_POINT ( 'NONE',  ( 0.000000000000000000, 0.000000000000000000, 7.000000000000000000 ) ) ;
#242 = DIRECTION ( 'NONE',  ( 1.000000000000000000, 0.000000000000000000, -0.000000000000000000 ) ) ;
#243 = LOCAL_TIME ( 14, 20, 54.00000000000000000, #111 ) ;
#244 = DIRECTION ( 'NONE',  ( 0.000000000000000000, 0.000000000000000000, 1.000000000000000000 ) ) ;
#245 = DIRECTION ( 'NONE',  ( 1.000000000000000000, 0.000000000000000000, 0.000000000000000000 ) ) ;
#246 = ADVANCED_FACE ( 'NONE', ( #6 ), #126, .T. ) ;
#247 = CIRCLE ( 'NONE', #253, 11.00000000000000000 ) ;
#248 = LOCAL_TIME ( 14, 20, 54.00000000000000000, #224 ) ;
#249 =( LENGTH_UNIT ( ) NAMED_UNIT ( * ) SI_UNIT ( .MILLI., .METRE. ) );
#250 = VERTEX_POINT ( 'NONE', #268 ) ;
#251 = PRODUCT_DEFINITION_SHAPE ( 'NONE', 'NONE',  #287 ) ;
#252 = ORIENTED_EDGE ( 'NONE', *, *, #30, .T. ) ;
#253 = AXIS2_PLACEMENT_3D ( 'NONE', #241, #148, #212 ) ;
#254 = PERSON_AND_ORGANIZATION ( #266, #295 ) ;
#255 = DIRECTION ( 'NONE',  ( 1.000000000000000000, 0.000000000000000000, 0.000000000000000000 ) ) ;
#256 = ADVANCED_FACE ( 'NONE', ( #51 ), #288, .T. ) ;
#257 = VERTEX_POINT ( 'NONE', #125 ) ;
#258 = AXIS2_PLACEMENT_3D ( 'NONE', #175, #12, #64 ) ;
#259 = DIRECTION ( 'NONE',  ( 1.000000000000000000, 0.000000000000000000, 0.000000000000000000 ) ) ;
#260 = CARTESIAN_POINT ( 'NONE',  ( 0.000000000000000000, 0.000000000000000000, 7.200000000000011724 ) ) ;
#261 = ADVANCED_FACE ( 'NONE', ( #101 ), #2, .T. ) ;
#262 = PERSON_AND_ORGANIZATION ( #266, #295 ) ;
#263 = VERTEX_POINT ( 'NONE', #1 ) ;
#264 = CARTESIAN_POINT ( 'NONE',  ( 11.00000000000000000, 1.347111479062088405E-15, 0.000000000000000000 ) ) ;
#265 = CARTESIAN_POINT ( 'NONE',  ( 0.000000000000000000, 0.000000000000000000, 7.000000000000000000 ) ) ;
#266 = PERSON ( 'NEURÈENÝ', 'NEURÈENÝ', 'NEURÈENÝ', ('NEURÈENÝ'), ('NEURÈENÝ'), ('NEURÈENÝ') ) ;
#267 = DIRECTION ( 'NONE',  ( 0.000000000000000000, 0.000000000000000000, 1.000000000000000000 ) ) ;
#268 = CARTESIAN_POINT ( 'NONE',  ( 8.000000000000000000, 9.797174393178825657E-16, 7.200000000000011724 ) ) ;
#269 = DIRECTION ( 'NONE',  ( 1.000000000000000000, 0.000000000000000000, 0.000000000000000000 ) ) ;
#270 = EDGE_CURVE ( 'NONE', #250, #142, #8, .T. ) ;
#271 = AXIS2_PLACEMENT_3D ( 'NONE', #43, #92, #75 ) ;
#272 = DIRECTION ( 'NONE',  ( 0.000000000000000000, 0.000000000000000000, 1.000000000000000000 ) ) ;
#273 = ORIENTED_EDGE ( 'NONE', *, *, #293, .F. ) ;
#274 = DIRECTION ( 'NONE',  ( 1.000000000000000000, 0.000000000000000000, 0.000000000000000000 ) ) ;
#275 = ORIENTED_EDGE ( 'NONE', *, *, #68, .F. ) ;
#276 = VERTEX_POINT ( 'NONE', #57 ) ;
#277 = APPROVAL_ROLE ( '' ) ;
#278 = ORIENTED_EDGE ( 'NONE', *, *, #37, .F. ) ;
#279 = CALENDAR_DATE ( 2022, 7, 7 ) ;
#280 = LOCAL_TIME ( 14, 20, 54.00000000000000000, #186 ) ;
#281 = DIRECTION ( 'NONE',  ( -0.000000000000000000, -0.000000000000000000, -1.000000000000000000 ) ) ;
#282 = APPROVAL_ROLE ( '' ) ;
#283 = ORIENTED_EDGE ( 'NONE', *, *, #127, .F. ) ;
#284 = CARTESIAN_POINT ( 'NONE',  ( 0.000000000000000000, 0.000000000000000000, 0.000000000000000000 ) ) ;
#285 = CARTESIAN_POINT ( 'NONE',  ( -8.200000000000001066, 1.004210375300829674E-15, 7.200000000000011724 ) ) ;
#286 = APPROVAL_PERSON_ORGANIZATION ( #15, #231, #277 ) ;
#287 = PRODUCT_DEFINITION ( 'NEZNÁMÝ', '', #133, #219 ) ;
#288 = CYLINDRICAL_SURFACE ( 'NONE', #44, 11.00000000000000000 ) ;
#289 = DIRECTION ( 'NONE',  ( -1.000000000000000000, 1.224646799147353207E-16, 0.000000000000000000 ) ) ;
#290 = AXIS2_PLACEMENT_3D ( 'NONE', #234, #182, #113 ) ;
#291 = VECTOR ( 'NONE', #206, 1000.000000000000000 ) ;
#292 = CYLINDRICAL_SURFACE ( 'NONE', #209, 8.000000000000000000 ) ;
#293 = EDGE_CURVE ( 'NONE', #263, #238, #77, .T. ) ;
#294 = ORIENTED_EDGE ( 'NONE', *, *, #3, .F. ) ;
#295 = ORGANIZATION ( 'NEURÈENÝ', 'NEURÈENÝ', '' ) ;
#296 = ADVANCED_FACE ( 'NONE', ( #121 ), #87, .F. ) ;
#297 = DATE_AND_TIME ( #91, #17 ) ;
#298 = VERTEX_POINT ( 'NONE', #130 ) ;
#299 = CC_DESIGN_APPROVAL ( #223, ( #239 ) ) ;
#300 = ORIENTED_EDGE ( 'NONE', *, *, #96, .T. ) ;
#301 = ORIENTED_EDGE ( 'NONE', *, *, #37, .T. ) ;
#302 = ADVANCED_FACE ( 'NONE', ( #129 ), #305, .F. ) ;
#303 =( NAMED_UNIT ( * ) SI_UNIT ( $, .STERADIAN. ) SOLID_ANGLE_UNIT ( ) );
#304 = DIRECTION ( 'NONE',  ( 0.000000000000000000, 0.000000000000000000, 1.000000000000000000 ) ) ;
#305 = TOROIDAL_SURFACE ( 'NONE', #59, 8.200000000000001066, 0.2000000000000000111 ) ;
#306 = DATE_TIME_ROLE ( 'creation_date' ) ;
#307 = EDGE_LOOP ( 'NONE', ( #283, #210, #201, #278 ) ) ;
ENDSEC;
END-ISO-10303-21;
