ISO-10303-21;
HEADER;
FILE_DESCRIPTION (( 'STEP AP203' ),
    '1' );
FILE_NAME ('50c8.STEP',
    '2023-02-12T12:15:08',
    ( '' ),
    ( '' ),
    'SwSTEP 2.0',
    'SolidWorks 2019',
    '' );
FILE_SCHEMA (( 'CONFIG_CONTROL_DESIGN' ));
ENDSEC;

DATA;
#1 = CARTESIAN_POINT ( 'NONE',  ( 0.000000000000000000, 0.000000000000000000, 160.0000000000000000 ) ) ;
#2 = DATE_AND_TIME ( #109, #127 ) ;
#3 = PRODUCT_DEFINITION_SHAPE ( 'NONE', 'NONE',  #87 ) ;
#4 = CLOSED_SHELL ( 'NONE', ( #135, #120, #197, #16, #174, #236, #179 ) ) ;
#5 = ADVANCED_BREP_SHAPE_REPRESENTATION ( '50c8', ( #112, #37 ), #183 ) ;
#6 = VERTEX_POINT ( 'NONE', #116 ) ;
#7 = CC_DESIGN_SECURITY_CLASSIFICATION ( #178, ( #108 ) ) ;
#8 = PERSON_AND_ORGANIZATION ( #247, #192 ) ;
#9 = EDGE_LOOP ( 'NONE', ( #13, #219 ) ) ;
#10 = DIRECTION ( 'NONE',  ( 1.000000000000000000, 0.000000000000000000, 0.000000000000000000 ) ) ;
#11 = DIRECTION ( 'NONE',  ( -1.000000000000000000, 0.000000000000000000, 0.000000000000000000 ) ) ;
#12 = EDGE_CURVE ( 'NONE', #119, #6, #134, .T. ) ;
#13 = ORIENTED_EDGE ( 'NONE', *, *, #12, .T. ) ;
#14 = CIRCLE ( 'NONE', #86, 1.250000000000000000 ) ;
#15 = DIRECTION ( 'NONE',  ( -1.000000000000000000, 0.000000000000000000, 0.000000000000000000 ) ) ;
#16 = ADVANCED_FACE ( 'NONE', ( #198, #26 ), #48, .T. ) ;
#17 = DIRECTION ( 'NONE',  ( 0.000000000000000000, 0.000000000000000000, 1.000000000000000000 ) ) ;
#18 = AXIS2_PLACEMENT_3D ( 'NONE', #227, #34, #104 ) ;
#19 = VERTEX_POINT ( 'NONE', #202 ) ;
#20 = APPROVAL_PERSON_ORGANIZATION ( #89, #53, #251 ) ;
#21 = CARTESIAN_POINT ( 'NONE',  ( 0.000000000000000000, 0.000000000000000000, 2.000000000000000000 ) ) ;
#22 = LINE ( 'NONE', #82, #23 ) ;
#23 = VECTOR ( 'NONE', #76, 1000.000000000000000 ) ;
#24 = AXIS2_PLACEMENT_3D ( 'NONE', #28, #241, #11 ) ;
#25 = PERSON_AND_ORGANIZATION ( #247, #192 ) ;
#26 = FACE_OUTER_BOUND ( 'NONE', #9, .T. ) ;
#27 = FACE_OUTER_BOUND ( 'NONE', #243, .T. ) ;
#28 = CARTESIAN_POINT ( 'NONE',  ( 0.000000000000000000, 0.000000000000000000, 2.000000000000000000 ) ) ;
#29 = EDGE_CURVE ( 'NONE', #19, #147, #22, .T. ) ;
#30 = DIRECTION ( 'NONE',  ( 0.000000000000000000, 0.000000000000000000, 1.000000000000000000 ) ) ;
#31 = ORIENTED_EDGE ( 'NONE', *, *, #193, .T. ) ;
#32 = ORIENTED_EDGE ( 'NONE', *, *, #29, .T. ) ;
#33 = DIRECTION ( 'NONE',  ( 1.000000000000000000, 0.000000000000000000, 0.000000000000000000 ) ) ;
#34 = DIRECTION ( 'NONE',  ( -0.000000000000000000, -0.000000000000000000, -1.000000000000000000 ) ) ;
#35 = AXIS2_PLACEMENT_3D ( 'NONE', #184, #30, #43 ) ;
#36 = ORIENTED_EDGE ( 'NONE', *, *, #224, .T. ) ;
#37 = AXIS2_PLACEMENT_3D ( 'NONE', #167, #39, #249 ) ;
#38 = ORIENTED_EDGE ( 'NONE', *, *, #156, .T. ) ;
#39 = DIRECTION ( 'NONE',  ( 0.000000000000000000, 0.000000000000000000, 1.000000000000000000 ) ) ;
#40 = CARTESIAN_POINT ( 'NONE',  ( -1.250000000000000000, 0.000000000000000000, 160.0000000000000000 ) ) ;
#41 = ORIENTED_EDGE ( 'NONE', *, *, #242, .T. ) ;
#42 = PERSON_AND_ORGANIZATION_ROLE ( 'creator' ) ;
#43 = DIRECTION ( 'NONE',  ( 1.000000000000000000, 0.000000000000000000, 0.000000000000000000 ) ) ;
#44 = EDGE_LOOP ( 'NONE', ( #38, #41 ) ) ;
#45 = VECTOR ( 'NONE', #181, 1000.000000000000000 ) ;
#46 = CYLINDRICAL_SURFACE ( 'NONE', #24, 2.500000000000000000 ) ;
#47 = LINE ( 'NONE', #203, #45 ) ;
#48 = PLANE ( 'NONE',  #124 ) ;
#49 = CIRCLE ( 'NONE', #54, 1.250000000000000000 ) ;
#50 = PERSON_AND_ORGANIZATION_ROLE ( 'design_owner' ) ;
#51 = ORIENTED_EDGE ( 'NONE', *, *, #125, .F. ) ;
#52 = CIRCLE ( 'NONE', #111, 2.500000000000000000 ) ;
#53 = APPROVAL ( #229, 'NEURÈENÝ' ) ;
#54 = AXIS2_PLACEMENT_3D ( 'NONE', #250, #17, #248 ) ;
#55 = COORDINATED_UNIVERSAL_TIME_OFFSET ( 1, 0, .AHEAD. ) ;
#56 = VERTEX_POINT ( 'NONE', #239 ) ;
#57 = CC_DESIGN_PERSON_AND_ORGANIZATION_ASSIGNMENT ( #60, #92, ( #108 ) ) ;
#58 = CIRCLE ( 'NONE', #234, 2.500000000000000000 ) ;
#59 = COORDINATED_UNIVERSAL_TIME_OFFSET ( 1, 0, .AHEAD. ) ;
#60 = PERSON_AND_ORGANIZATION ( #247, #192 ) ;
#61 = DATE_TIME_ROLE ( 'creation_date' ) ;
#62 = CARTESIAN_POINT ( 'NONE',  ( 0.000000000000000000, 0.000000000000000000, 0.000000000000000000 ) ) ;
#63 = DIRECTION ( 'NONE',  ( 0.000000000000000000, 0.000000000000000000, 1.000000000000000000 ) ) ;
#64 = ORIENTED_EDGE ( 'NONE', *, *, #193, .F. ) ;
#65 = LINE ( 'NONE', #130, #115 ) ;
#66 = EDGE_LOOP ( 'NONE', ( #132, #129, #176, #107 ) ) ;
#67 = APPLICATION_PROTOCOL_DEFINITION ( 'international standard', 'config_control_design', 1994, #208 ) ;
#68 = DIRECTION ( 'NONE',  ( 0.000000000000000000, 0.000000000000000000, 1.000000000000000000 ) ) ;
#69 = APPLICATION_PROTOCOL_DEFINITION ( 'international standard', 'config_control_design', 1994, #190 ) ;
#70 = DATE_AND_TIME ( #158, #153 ) ;
#71 = ORIENTED_EDGE ( 'NONE', *, *, #230, .F. ) ;
#72 = APPROVAL_ROLE ( '' ) ;
#73 = EDGE_CURVE ( 'NONE', #144, #207, #58, .T. ) ;
#74 = CIRCLE ( 'NONE', #235, 1.250000000000000000 ) ;
#75 = LOCAL_TIME ( 13, 15, 8.000000000000000000, #55 ) ;
#76 = DIRECTION ( 'NONE',  ( -0.000000000000000000, -0.000000000000000000, -1.000000000000000000 ) ) ;
#77 = APPROVAL ( #123, 'NEURÈENÝ' ) ;
#78 = COORDINATED_UNIVERSAL_TIME_OFFSET ( 1, 0, .AHEAD. ) ;
#79 = DIRECTION ( 'NONE',  ( 1.000000000000000000, 0.000000000000000000, 0.000000000000000000 ) ) ;
#80 = CARTESIAN_POINT ( 'NONE',  ( 0.000000000000000000, 0.000000000000000000, 2.000000000000000000 ) ) ;
#81 = APPROVAL_PERSON_ORGANIZATION ( #103, #214, #173 ) ;
#82 = CARTESIAN_POINT ( 'NONE',  ( 1.250000000000000000, 1.530808498934191571E-16, 160.0000000000000000 ) ) ;
#83 = DATE_AND_TIME ( #177, #204 ) ;
#84 = ORIENTED_EDGE ( 'NONE', *, *, #73, .F. ) ;
#85 =( LENGTH_UNIT ( ) NAMED_UNIT ( * ) SI_UNIT ( .MILLI., .METRE. ) );
#86 = AXIS2_PLACEMENT_3D ( 'NONE', #254, #199, #10 ) ;
#87 = PRODUCT_DEFINITION ( 'NEZNÁMÝ', '', #108, #88 ) ;
#88 = DESIGN_CONTEXT ( 'detailed design', #208, 'design' ) ;
#89 = PERSON_AND_ORGANIZATION ( #247, #192 ) ;
#90 = CARTESIAN_POINT ( 'NONE',  ( 2.500000000000000000, 3.061616997868383141E-16, 0.000000000000000000 ) ) ;
#91 = SHAPE_DEFINITION_REPRESENTATION ( #3, #5 ) ;
#92 = PERSON_AND_ORGANIZATION_ROLE ( 'creator' ) ;
#93 = DIRECTION ( 'NONE',  ( -1.000000000000000000, 0.000000000000000000, 0.000000000000000000 ) ) ;
#94 = FACE_OUTER_BOUND ( 'NONE', #44, .T. ) ;
#95 = CC_DESIGN_PERSON_AND_ORGANIZATION_ASSIGNMENT ( #102, #42, ( #87 ) ) ;
#96 = DIRECTION ( 'NONE',  ( 1.000000000000000000, 0.000000000000000000, 0.000000000000000000 ) ) ;
#97 = DIRECTION ( 'NONE',  ( 0.000000000000000000, 0.000000000000000000, 1.000000000000000000 ) ) ;
#98 = DIRECTION ( 'NONE',  ( 1.000000000000000000, 0.000000000000000000, -0.000000000000000000 ) ) ;
#99 = CARTESIAN_POINT ( 'NONE',  ( 0.000000000000000000, 0.000000000000000000, 2.000000000000000000 ) ) ;
#100 = PERSON_AND_ORGANIZATION_ROLE ( 'design_supplier' ) ;
#101 = EDGE_LOOP ( 'NONE', ( #71, #64 ) ) ;
#102 = PERSON_AND_ORGANIZATION ( #247, #192 ) ;
#103 = PERSON_AND_ORGANIZATION ( #247, #192 ) ;
#104 = DIRECTION ( 'NONE',  ( -1.000000000000000000, 0.000000000000000000, 0.000000000000000000 ) ) ;
#105 = MECHANICAL_CONTEXT ( 'NONE', #190, 'mechanical' ) ;
#106 = CARTESIAN_POINT ( 'NONE',  ( 1.250000000000000000, 1.530808498934191571E-16, 2.000000000000000000 ) ) ;
#107 = ORIENTED_EDGE ( 'NONE', *, *, #131, .F. ) ;
#108 = PRODUCT_DEFINITION_FORMATION_WITH_SPECIFIED_SOURCE ( 'LIBOVOLNÝ', '', #232, .NOT_KNOWN. ) ;
#109 = CALENDAR_DATE ( 2023, 12, 2 ) ;
#110 = CALENDAR_DATE ( 2023, 12, 2 ) ;
#111 = AXIS2_PLACEMENT_3D ( 'NONE', #80, #205, #33 ) ;
#112 = MANIFOLD_SOLID_BREP ( 'Pøidat vysunutím3', #4 ) ;
#113 = CARTESIAN_POINT ( 'NONE',  ( -2.500000000000000000, 0.000000000000000000, 0.000000000000000000 ) ) ;
#114 = DIRECTION ( 'NONE',  ( 1.000000000000000000, 0.000000000000000000, 0.000000000000000000 ) ) ;
#115 = VECTOR ( 'NONE', #217, 1000.000000000000000 ) ;
#116 = CARTESIAN_POINT ( 'NONE',  ( 2.500000000000000000, 3.061616997868383141E-16, 2.000000000000000000 ) ) ;
#117 = CARTESIAN_POINT ( 'NONE',  ( -2.500000000000000000, 0.000000000000000000, 2.000000000000000000 ) ) ;
#118 = EDGE_CURVE ( 'NONE', #6, #144, #65, .T. ) ;
#119 = VERTEX_POINT ( 'NONE', #117 ) ;
#120 = ADVANCED_FACE ( 'NONE', ( #172 ), #46, .T. ) ;
#121 = DATE_AND_TIME ( #133, #75 ) ;
#122 = CARTESIAN_POINT ( 'NONE',  ( 0.000000000000000000, 0.000000000000000000, 2.000000000000000000 ) ) ;
#123 = APPROVAL_STATUS ( 'not_yet_approved' ) ;
#124 = AXIS2_PLACEMENT_3D ( 'NONE', #196, #151, #98 ) ;
#125 = EDGE_CURVE ( 'NONE', #252, #56, #47, .T. ) ;
#126 = CC_DESIGN_PERSON_AND_ORGANIZATION_ASSIGNMENT ( #8, #100, ( #108 ) ) ;
#127 = LOCAL_TIME ( 13, 15, 8.000000000000000000, #162 ) ;
#128 = SECURITY_CLASSIFICATION_LEVEL ( 'unclassified' ) ;
#129 = ORIENTED_EDGE ( 'NONE', *, *, #118, .T. ) ;
#130 = CARTESIAN_POINT ( 'NONE',  ( 2.500000000000000000, 3.061616997868383141E-16, 2.000000000000000000 ) ) ;
#131 = EDGE_CURVE ( 'NONE', #119, #207, #139, .T. ) ;
#132 = ORIENTED_EDGE ( 'NONE', *, *, #188, .F. ) ;
#133 = CALENDAR_DATE ( 2023, 12, 2 ) ;
#134 = CIRCLE ( 'NONE', #170, 2.500000000000000000 ) ;
#135 = ADVANCED_FACE ( 'NONE', ( #141 ), #137, .T. ) ;
#136 = AXIS2_PLACEMENT_3D ( 'NONE', #200, #97, #114 ) ;
#137 = CYLINDRICAL_SURFACE ( 'NONE', #18, 1.250000000000000000 ) ;
#138 =( NAMED_UNIT ( * ) SI_UNIT ( $, .STERADIAN. ) SOLID_ANGLE_UNIT ( ) );
#139 = LINE ( 'NONE', #163, #222 ) ;
#140 = CYLINDRICAL_SURFACE ( 'NONE', #228, 2.500000000000000000 ) ;
#141 = FACE_OUTER_BOUND ( 'NONE', #160, .T. ) ;
#142 = CC_DESIGN_PERSON_AND_ORGANIZATION_ASSIGNMENT ( #25, #149, ( #178 ) ) ;
#143 = LOCAL_TIME ( 13, 15, 8.000000000000000000, #59 ) ;
#144 = VERTEX_POINT ( 'NONE', #90 ) ;
#145 = DIRECTION ( 'NONE',  ( -0.000000000000000000, -0.000000000000000000, -1.000000000000000000 ) ) ;
#146 = ORIENTED_EDGE ( 'NONE', *, *, #29, .F. ) ;
#147 = VERTEX_POINT ( 'NONE', #106 ) ;
#148 = CIRCLE ( 'NONE', #136, 2.500000000000000000 ) ;
#149 = PERSON_AND_ORGANIZATION_ROLE ( 'classification_officer' ) ;
#150 = APPROVAL_DATE_TIME ( #171, #77 ) ;
#151 = DIRECTION ( 'NONE',  ( 0.000000000000000000, 0.000000000000000000, 1.000000000000000000 ) ) ;
#152 = EDGE_LOOP ( 'NONE', ( #218, #182, #187, #36 ) ) ;
#153 = LOCAL_TIME ( 13, 15, 8.000000000000000000, #209 ) ;
#154 = CARTESIAN_POINT ( 'NONE',  ( 0.000000000000000000, 0.000000000000000000, 0.000000000000000000 ) ) ;
#155 = ORIENTED_EDGE ( 'NONE', *, *, #125, .T. ) ;
#156 = EDGE_CURVE ( 'NONE', #252, #19, #216, .T. ) ;
#157 = DIRECTION ( 'NONE',  ( 0.000000000000000000, 0.000000000000000000, 1.000000000000000000 ) ) ;
#158 = CALENDAR_DATE ( 2023, 12, 2 ) ;
#159 = CARTESIAN_POINT ( 'NONE',  ( 0.000000000000000000, 0.000000000000000000, 160.0000000000000000 ) ) ;
#160 = EDGE_LOOP ( 'NONE', ( #175, #32, #31, #51 ) ) ;
#161 = DIRECTION ( 'NONE',  ( 1.000000000000000000, 0.000000000000000000, 0.000000000000000000 ) ) ;
#162 = COORDINATED_UNIVERSAL_TIME_OFFSET ( 1, 0, .AHEAD. ) ;
#163 = CARTESIAN_POINT ( 'NONE',  ( -2.500000000000000000, 0.000000000000000000, 2.000000000000000000 ) ) ;
#164 = ORIENTED_EDGE ( 'NONE', *, *, #224, .F. ) ;
#165 = AXIS2_PLACEMENT_3D ( 'NONE', #1, #157, #244 ) ;
#166 = AXIS2_PLACEMENT_3D ( 'NONE', #62, #211, #194 ) ;
#167 = CARTESIAN_POINT ( 'NONE',  ( 0.000000000000000000, 0.000000000000000000, 0.000000000000000000 ) ) ;
#168 = PERSON_AND_ORGANIZATION ( #247, #192 ) ;
#169 = PLANE ( 'NONE',  #165 ) ;
#170 = AXIS2_PLACEMENT_3D ( 'NONE', #99, #221, #79 ) ;
#171 = DATE_AND_TIME ( #110, #143 ) ;
#172 = FACE_OUTER_BOUND ( 'NONE', #66, .T. ) ;
#173 = APPROVAL_ROLE ( '' ) ;
#174 = ADVANCED_FACE ( 'NONE', ( #195 ), #213, .F. ) ;
#175 = ORIENTED_EDGE ( 'NONE', *, *, #242, .F. ) ;
#176 = ORIENTED_EDGE ( 'NONE', *, *, #73, .T. ) ;
#177 = CALENDAR_DATE ( 2023, 12, 2 ) ;
#178 = SECURITY_CLASSIFICATION ( '', '', #128 ) ;
#179 = ADVANCED_FACE ( 'NONE', ( #94 ), #169, .T. ) ;
#180 = ORIENTED_EDGE ( 'NONE', *, *, #230, .T. ) ;
#181 = DIRECTION ( 'NONE',  ( -0.000000000000000000, -0.000000000000000000, -1.000000000000000000 ) ) ;
#182 = ORIENTED_EDGE ( 'NONE', *, *, #12, .F. ) ;
#183 =( GEOMETRIC_REPRESENTATION_CONTEXT ( 3 ) GLOBAL_UNCERTAINTY_ASSIGNED_CONTEXT ( ( #225 ) ) GLOBAL_UNIT_ASSIGNED_CONTEXT ( ( #85, #185, #138 ) ) REPRESENTATION_CONTEXT ( 'NONE', 'WORKASPACE' ) );
#184 = CARTESIAN_POINT ( 'NONE',  ( 0.000000000000000000, 0.000000000000000000, 160.0000000000000000 ) ) ;
#185 =( NAMED_UNIT ( * ) PLANE_ANGLE_UNIT ( ) SI_UNIT ( $, .RADIAN. ) );
#186 = PERSON_AND_ORGANIZATION ( #247, #192 ) ;
#187 = ORIENTED_EDGE ( 'NONE', *, *, #131, .T. ) ;
#188 = EDGE_CURVE ( 'NONE', #6, #119, #52, .T. ) ;
#189 = AXIS2_PLACEMENT_3D ( 'NONE', #159, #145, #15 ) ;
#190 = APPLICATION_CONTEXT ( 'configuration controlled 3d designs of mechanical parts and assemblies' ) ;
#191 = APPROVAL_PERSON_ORGANIZATION ( #168, #77, #72 ) ;
#192 = ORGANIZATION ( 'NEURÈENÝ', 'NEURÈENÝ', '' ) ;
#193 = EDGE_CURVE ( 'NONE', #147, #56, #74, .T. ) ;
#194 = DIRECTION ( 'NONE',  ( 1.000000000000000000, 0.000000000000000000, -0.000000000000000000 ) ) ;
#195 = FACE_OUTER_BOUND ( 'NONE', #226, .T. ) ;
#196 = CARTESIAN_POINT ( 'NONE',  ( 0.000000000000000000, 0.000000000000000000, 2.000000000000000000 ) ) ;
#197 = ADVANCED_FACE ( 'NONE', ( #237 ), #140, .T. ) ;
#198 = FACE_BOUND ( 'NONE', #101, .T. ) ;
#199 = DIRECTION ( 'NONE',  ( 0.000000000000000000, 0.000000000000000000, 1.000000000000000000 ) ) ;
#200 = CARTESIAN_POINT ( 'NONE',  ( 0.000000000000000000, 0.000000000000000000, 0.000000000000000000 ) ) ;
#201 = CC_DESIGN_APPROVAL ( #77, ( #108 ) ) ;
#202 = CARTESIAN_POINT ( 'NONE',  ( 1.250000000000000000, 1.530808498934191571E-16, 160.0000000000000000 ) ) ;
#203 = CARTESIAN_POINT ( 'NONE',  ( -1.250000000000000000, 0.000000000000000000, 160.0000000000000000 ) ) ;
#204 = LOCAL_TIME ( 13, 15, 8.000000000000000000, #78 ) ;
#205 = DIRECTION ( 'NONE',  ( 0.000000000000000000, 0.000000000000000000, 1.000000000000000000 ) ) ;
#206 = CC_DESIGN_DATE_AND_TIME_ASSIGNMENT ( #70, #223, ( #178 ) ) ;
#207 = VERTEX_POINT ( 'NONE', #113 ) ;
#208 = APPLICATION_CONTEXT ( 'configuration controlled 3d designs of mechanical parts and assemblies' ) ;
#209 = COORDINATED_UNIVERSAL_TIME_OFFSET ( 1, 0, .AHEAD. ) ;
#210 = DIRECTION ( 'NONE',  ( -0.000000000000000000, -0.000000000000000000, -1.000000000000000000 ) ) ;
#211 = DIRECTION ( 'NONE',  ( 0.000000000000000000, 0.000000000000000000, 1.000000000000000000 ) ) ;
#212 = CC_DESIGN_APPROVAL ( #214, ( #178 ) ) ;
#213 = PLANE ( 'NONE',  #166 ) ;
#214 = APPROVAL ( #215, 'NEURÈENÝ' ) ;
#215 = APPROVAL_STATUS ( 'not_yet_approved' ) ;
#216 = CIRCLE ( 'NONE', #35, 1.250000000000000000 ) ;
#217 = DIRECTION ( 'NONE',  ( -0.000000000000000000, -0.000000000000000000, -1.000000000000000000 ) ) ;
#218 = ORIENTED_EDGE ( 'NONE', *, *, #118, .F. ) ;
#219 = ORIENTED_EDGE ( 'NONE', *, *, #188, .T. ) ;
#220 = APPROVAL_DATE_TIME ( #83, #214 ) ;
#221 = DIRECTION ( 'NONE',  ( 0.000000000000000000, 0.000000000000000000, 1.000000000000000000 ) ) ;
#222 = VECTOR ( 'NONE', #231, 1000.000000000000000 ) ;
#223 = DATE_TIME_ROLE ( 'classification_date' ) ;
#224 = EDGE_CURVE ( 'NONE', #207, #144, #148, .T. ) ;
#225 = UNCERTAINTY_MEASURE_WITH_UNIT (LENGTH_MEASURE( 1.000000000000000082E-05 ), #85, 'distance_accuracy_value', 'NONE');
#226 = EDGE_LOOP ( 'NONE', ( #164, #84 ) ) ;
#227 = CARTESIAN_POINT ( 'NONE',  ( 0.000000000000000000, 0.000000000000000000, 160.0000000000000000 ) ) ;
#228 = AXIS2_PLACEMENT_3D ( 'NONE', #21, #210, #93 ) ;
#229 = APPROVAL_STATUS ( 'not_yet_approved' ) ;
#230 = EDGE_CURVE ( 'NONE', #56, #147, #14, .T. ) ;
#231 = DIRECTION ( 'NONE',  ( -0.000000000000000000, -0.000000000000000000, -1.000000000000000000 ) ) ;
#232 = PRODUCT ( '50c8', '50c8', '', ( #105 ) ) ;
#233 = ORIENTED_EDGE ( 'NONE', *, *, #156, .F. ) ;
#234 = AXIS2_PLACEMENT_3D ( 'NONE', #154, #68, #96 ) ;
#235 = AXIS2_PLACEMENT_3D ( 'NONE', #122, #63, #161 ) ;
#236 = ADVANCED_FACE ( 'NONE', ( #27 ), #240, .T. ) ;
#237 = FACE_OUTER_BOUND ( 'NONE', #152, .T. ) ;
#238 = CC_DESIGN_DATE_AND_TIME_ASSIGNMENT ( #2, #61, ( #87 ) ) ;
#239 = CARTESIAN_POINT ( 'NONE',  ( -1.250000000000000000, 0.000000000000000000, 2.000000000000000000 ) ) ;
#240 = CYLINDRICAL_SURFACE ( 'NONE', #189, 1.250000000000000000 ) ;
#241 = DIRECTION ( 'NONE',  ( -0.000000000000000000, -0.000000000000000000, -1.000000000000000000 ) ) ;
#242 = EDGE_CURVE ( 'NONE', #19, #252, #49, .T. ) ;
#243 = EDGE_LOOP ( 'NONE', ( #146, #233, #155, #180 ) ) ;
#244 = DIRECTION ( 'NONE',  ( 1.000000000000000000, 0.000000000000000000, -0.000000000000000000 ) ) ;
#245 = APPROVAL_DATE_TIME ( #121, #53 ) ;
#246 = PRODUCT_RELATED_PRODUCT_CATEGORY ( 'detail', '', ( #232 ) ) ;
#247 = PERSON ( 'NEURÈENÝ', 'NEURÈENÝ', 'NEURÈENÝ', ('NEURÈENÝ'), ('NEURÈENÝ'), ('NEURÈENÝ') ) ;
#248 = DIRECTION ( 'NONE',  ( 1.000000000000000000, 0.000000000000000000, 0.000000000000000000 ) ) ;
#249 = DIRECTION ( 'NONE',  ( 1.000000000000000000, 0.000000000000000000, 0.000000000000000000 ) ) ;
#250 = CARTESIAN_POINT ( 'NONE',  ( 0.000000000000000000, 0.000000000000000000, 160.0000000000000000 ) ) ;
#251 = APPROVAL_ROLE ( '' ) ;
#252 = VERTEX_POINT ( 'NONE', #40 ) ;
#253 = CC_DESIGN_APPROVAL ( #53, ( #87 ) ) ;
#254 = CARTESIAN_POINT ( 'NONE',  ( 0.000000000000000000, 0.000000000000000000, 2.000000000000000000 ) ) ;
#255 = CC_DESIGN_PERSON_AND_ORGANIZATION_ASSIGNMENT ( #186, #50, ( #232 ) ) ;
ENDSEC;
END-ISO-10303-21;
