ISO-10303-21;
HEADER;
FILE_DESCRIPTION (( 'STEP AP203' ),
    '1' );
FILE_NAME ('b036.STEP',
    '2022-07-07T12:46:32',
    ( '' ),
    ( '' ),
    'SwSTEP 2.0',
    'SolidWorks 2019',
    '' );
FILE_SCHEMA (( 'CONFIG_CONTROL_DESIGN' ));
ENDSEC;

DATA;
#1 = PERSON_AND_ORGANIZATION_ROLE ( 'classification_officer' ) ;
#2 = APPROVAL_DATE_TIME ( #120, #211 ) ;
#3 = VERTEX_POINT ( 'NONE', #76 ) ;
#4 = ORIENTED_EDGE ( 'NONE', *, *, #65, .F. ) ;
#5 = CARTESIAN_POINT ( 'NONE',  ( 0.000000000000000000, 0.000000000000000000, 3.000000000000000000 ) ) ;
#6 = DIRECTION ( 'NONE',  ( 1.000000000000000000, 0.000000000000000000, 0.000000000000000000 ) ) ;
#7 = ORIENTED_EDGE ( 'NONE', *, *, #287, .F. ) ;
#8 = DIRECTION ( 'NONE',  ( -0.000000000000000000, -0.000000000000000000, -1.000000000000000000 ) ) ;
#9 = CARTESIAN_POINT ( 'NONE',  ( 0.000000000000000000, 0.000000000000000000, 0.000000000000000000 ) ) ;
#10 = EDGE_CURVE ( 'NONE', #203, #33, #193, .T. ) ;
#11 = ADVANCED_FACE ( 'NONE', ( #183 ), #27, .F. ) ;
#12 = CARTESIAN_POINT ( 'NONE',  ( 0.000000000000000000, 0.000000000000000000, 3.000000000000000000 ) ) ;
#13 = PLANE ( 'NONE',  #36 ) ;
#14 = CIRCLE ( 'NONE', #111, 2.500000000000000000 ) ;
#15 = PERSON_AND_ORGANIZATION ( #240, #113 ) ;
#16 = FACE_OUTER_BOUND ( 'NONE', #69, .T. ) ;
#17 = DIRECTION ( 'NONE',  ( -0.000000000000000000, -0.000000000000000000, -1.000000000000000000 ) ) ;
#18 = CARTESIAN_POINT ( 'NONE',  ( 0.000000000000000000, 0.000000000000000000, 253.0000000000000000 ) ) ;
#19 = CARTESIAN_POINT ( 'NONE',  ( 0.000000000000000000, 0.000000000000000000, 0.000000000000000000 ) ) ;
#20 = ORIENTED_EDGE ( 'NONE', *, *, #234, .F. ) ;
#21 = ORIENTED_EDGE ( 'NONE', *, *, #184, .T. ) ;
#22 = EDGE_CURVE ( 'NONE', #71, #291, #286, .T. ) ;
#23 = VERTEX_POINT ( 'NONE', #57 ) ;
#24 = APPROVAL ( #86, 'NEURÈENÝ' ) ;
#25 = ORIENTED_EDGE ( 'NONE', *, *, #22, .F. ) ;
#26 = ORIENTED_EDGE ( 'NONE', *, *, #10, .F. ) ;
#27 = TOROIDAL_SURFACE ( 'NONE', #257, 2.700000000000000178, 0.2000000000000000111 ) ;
#28 = CIRCLE ( 'NONE', #218, 5.000000000000000000 ) ;
#29 = LOCAL_TIME ( 14, 46, 32.00000000000000000, #136 ) ;
#30 = FACE_OUTER_BOUND ( 'NONE', #263, .T. ) ;
#31 = ADVANCED_FACE ( 'NONE', ( #124 ), #270, .T. ) ;
#32 = EDGE_LOOP ( 'NONE', ( #127, #177, #216, #123 ) ) ;
#33 = VERTEX_POINT ( 'NONE', #128 ) ;
#34 = CIRCLE ( 'NONE', #190, 2.500000000000000000 ) ;
#35 = DIRECTION ( 'NONE',  ( -0.000000000000000000, -0.000000000000000000, -1.000000000000000000 ) ) ;
#36 = AXIS2_PLACEMENT_3D ( 'NONE', #300, #81, #256 ) ;
#37 = LINE ( 'NONE', #227, #137 ) ;
#38 = CARTESIAN_POINT ( 'NONE',  ( 0.000000000000000000, 0.000000000000000000, 253.0000000000000000 ) ) ;
#39 = DIRECTION ( 'NONE',  ( 0.000000000000000000, 0.000000000000000000, 1.000000000000000000 ) ) ;
#40 = CARTESIAN_POINT ( 'NONE',  ( 0.000000000000000000, 0.000000000000000000, 3.200000000000008171 ) ) ;
#41 = APPROVAL_STATUS ( 'not_yet_approved' ) ;
#42 = PERSON_AND_ORGANIZATION ( #240, #113 ) ;
#43 = PRODUCT ( 'b036', 'b036', '', ( #62 ) ) ;
#44 = VECTOR ( 'NONE', #237, 1000.000000000000000 ) ;
#45 = COORDINATED_UNIVERSAL_TIME_OFFSET ( 1, 0, .AHEAD. ) ;
#46 = APPROVAL_DATE_TIME ( #213, #24 ) ;
#47 = ORIENTED_EDGE ( 'NONE', *, *, #287, .T. ) ;
#48 = CIRCLE ( 'NONE', #67, 5.000000000000000000 ) ;
#49 = ADVANCED_FACE ( 'NONE', ( #73, #30 ), #53, .T. ) ;
#50 = EDGE_LOOP ( 'NONE', ( #56, #20, #202, #26 ) ) ;
#51 = CARTESIAN_POINT ( 'NONE',  ( 0.000000000000000000, 0.000000000000000000, 0.000000000000000000 ) ) ;
#52 = ORIENTED_EDGE ( 'NONE', *, *, #284, .T. ) ;
#53 = PLANE ( 'NONE',  #147 ) ;
#54 = CLOSED_SHELL ( 'NONE', ( #196, #302, #31, #268, #49, #152, #277, #225, #11 ) ) ;
#55 = AXIS2_PLACEMENT_3D ( 'NONE', #19, #83, #187 ) ;
#56 = ORIENTED_EDGE ( 'NONE', *, *, #180, .F. ) ;
#57 = CARTESIAN_POINT ( 'NONE',  ( 5.000000000000000000, 6.123233995736766282E-16, 3.000000000000000000 ) ) ;
#58 = CARTESIAN_POINT ( 'NONE',  ( 2.700000000000000178, 0.000000000000000000, 3.200000000000008171 ) ) ;
#59 = AXIS2_PLACEMENT_3D ( 'NONE', #219, #107, #201 ) ;
#60 = FACE_OUTER_BOUND ( 'NONE', #155, .T. ) ;
#61 = PLANE ( 'NONE',  #89 ) ;
#62 = MECHANICAL_CONTEXT ( 'NONE', #94, 'mechanical' ) ;
#63 = PERSON_AND_ORGANIZATION_ROLE ( 'creator' ) ;
#64 = CARTESIAN_POINT ( 'NONE',  ( 0.000000000000000000, 0.000000000000000000, 0.000000000000000000 ) ) ;
#65 = EDGE_CURVE ( 'NONE', #23, #71, #104, .T. ) ;
#66 = DATE_AND_TIME ( #283, #29 ) ;
#67 = AXIS2_PLACEMENT_3D ( 'NONE', #12, #85, #134 ) ;
#68 = CC_DESIGN_DATE_AND_TIME_ASSIGNMENT ( #262, #118, ( #298 ) ) ;
#69 = EDGE_LOOP ( 'NONE', ( #156, #220 ) ) ;
#70 = CALENDAR_DATE ( 2022, 7, 7 ) ;
#71 = VERTEX_POINT ( 'NONE', #126 ) ;
#72 = ORIENTED_EDGE ( 'NONE', *, *, #133, .F. ) ;
#73 = FACE_BOUND ( 'NONE', #294, .T. ) ;
#74 = DIRECTION ( 'NONE',  ( -1.000000000000000000, 0.000000000000000000, 0.000000000000000000 ) ) ;
#75 = UNCERTAINTY_MEASURE_WITH_UNIT (LENGTH_MEASURE( 1.000000000000000082E-05 ), #192, 'distance_accuracy_value', 'NONE');
#76 = CARTESIAN_POINT ( 'NONE',  ( -2.500000000000000000, 0.000000000000000000, 253.0000000000000000 ) ) ;
#77 = ORIENTED_EDGE ( 'NONE', *, *, #288, .T. ) ;
#78 = EDGE_CURVE ( 'NONE', #106, #3, #119, .T. ) ;
#79 = DIRECTION ( 'NONE',  ( -0.000000000000000000, -0.000000000000000000, -1.000000000000000000 ) ) ;
#80 = CIRCLE ( 'NONE', #129, 2.700000000000000178 ) ;
#81 = DIRECTION ( 'NONE',  ( 0.000000000000000000, 0.000000000000000000, 1.000000000000000000 ) ) ;
#82 = AXIS2_PLACEMENT_3D ( 'NONE', #18, #92, #114 ) ;
#83 = DIRECTION ( 'NONE',  ( 0.000000000000000000, 0.000000000000000000, 1.000000000000000000 ) ) ;
#84 = ADVANCED_BREP_SHAPE_REPRESENTATION ( 'b036', ( #239, #175 ), #305 ) ;
#85 = DIRECTION ( 'NONE',  ( 0.000000000000000000, 0.000000000000000000, 1.000000000000000000 ) ) ;
#86 = APPROVAL_STATUS ( 'not_yet_approved' ) ;
#87 = APPLICATION_CONTEXT ( 'configuration controlled 3d designs of mechanical parts and assemblies' ) ;
#88 = DIRECTION ( 'NONE',  ( -1.000000000000000000, 0.000000000000000000, 0.000000000000000000 ) ) ;
#89 = AXIS2_PLACEMENT_3D ( 'NONE', #9, #252, #278 ) ;
#90 = AXIS2_PLACEMENT_3D ( 'NONE', #40, #163, #138 ) ;
#91 = PRODUCT_DEFINITION_FORMATION_WITH_SPECIFIED_SOURCE ( 'LIBOVOLNÝ', '', #43, .NOT_KNOWN. ) ;
#92 = DIRECTION ( 'NONE',  ( -0.000000000000000000, -0.000000000000000000, -1.000000000000000000 ) ) ;
#93 = DIRECTION ( 'NONE',  ( 1.000000000000000000, 0.000000000000000000, 0.000000000000000000 ) ) ;
#94 = APPLICATION_CONTEXT ( 'configuration controlled 3d designs of mechanical parts and assemblies' ) ;
#95 = PERSON_AND_ORGANIZATION ( #240, #113 ) ;
#96 = ORIENTED_EDGE ( 'NONE', *, *, #22, .T. ) ;
#97 = APPROVAL_ROLE ( '' ) ;
#98 = SHAPE_DEFINITION_REPRESENTATION ( #105, #84 ) ;
#99 = ORIENTED_EDGE ( 'NONE', *, *, #184, .F. ) ;
#100 = CIRCLE ( 'NONE', #275, 2.500000000000000000 ) ;
#101 = VERTEX_POINT ( 'NONE', #293 ) ;
#102 = ORIENTED_EDGE ( 'NONE', *, *, #284, .F. ) ;
#103 = DIRECTION ( 'NONE',  ( 0.000000000000000000, 0.000000000000000000, 1.000000000000000000 ) ) ;
#104 = LINE ( 'NONE', #200, #161 ) ;
#105 = PRODUCT_DEFINITION_SHAPE ( 'NONE', 'NONE',  #238 ) ;
#106 = VERTEX_POINT ( 'NONE', #179 ) ;
#107 = DIRECTION ( 'NONE',  ( 0.000000000000000000, 0.000000000000000000, 1.000000000000000000 ) ) ;
#108 = FACE_OUTER_BOUND ( 'NONE', #154, .T. ) ;
#109 = DIRECTION ( 'NONE',  ( 0.000000000000000000, 0.000000000000000000, 1.000000000000000000 ) ) ;
#110 = DATE_TIME_ROLE ( 'creation_date' ) ;
#111 = AXIS2_PLACEMENT_3D ( 'NONE', #115, #109, #224 ) ;
#112 = LINE ( 'NONE', #207, #304 ) ;
#113 = ORGANIZATION ( 'NEURÈENÝ', 'NEURÈENÝ', '' ) ;
#114 = DIRECTION ( 'NONE',  ( -1.000000000000000000, 0.000000000000000000, 0.000000000000000000 ) ) ;
#115 = CARTESIAN_POINT ( 'NONE',  ( 0.000000000000000000, 0.000000000000000000, 3.200000000000008171 ) ) ;
#116 = CC_DESIGN_APPROVAL ( #24, ( #91 ) ) ;
#117 = CC_DESIGN_PERSON_AND_ORGANIZATION_ASSIGNMENT ( #266, #195, ( #91 ) ) ;
#118 = DATE_TIME_ROLE ( 'classification_date' ) ;
#119 = CIRCLE ( 'NONE', #59, 2.500000000000000000 ) ;
#120 = DATE_AND_TIME ( #144, #191 ) ;
#121 = ORIENTED_EDGE ( 'NONE', *, *, #248, .T. ) ;
#122 = DIRECTION ( 'NONE',  ( 1.000000000000000000, 0.000000000000000000, 0.000000000000000000 ) ) ;
#123 = ORIENTED_EDGE ( 'NONE', *, *, #197, .F. ) ;
#124 = FACE_OUTER_BOUND ( 'NONE', #178, .T. ) ;
#125 = EDGE_LOOP ( 'NONE', ( #7, #25 ) ) ;
#126 = CARTESIAN_POINT ( 'NONE',  ( 5.000000000000000000, 6.123233995736766282E-16, 0.000000000000000000 ) ) ;
#127 = ORIENTED_EDGE ( 'NONE', *, *, #78, .F. ) ;
#128 = CARTESIAN_POINT ( 'NONE',  ( 2.700000000000000178, 0.000000000000000000, 3.000000000000004441 ) ) ;
#129 = AXIS2_PLACEMENT_3D ( 'NONE', #186, #274, #276 ) ;
#130 = LOCAL_TIME ( 14, 46, 32.00000000000000000, #214 ) ;
#131 = CARTESIAN_POINT ( 'NONE',  ( -2.500000000000000000, 0.000000000000000000, 3.200000000000008171 ) ) ;
#132 = FACE_OUTER_BOUND ( 'NONE', #125, .T. ) ;
#133 = EDGE_CURVE ( 'NONE', #151, #101, #100, .T. ) ;
#134 = DIRECTION ( 'NONE',  ( 1.000000000000000000, 0.000000000000000000, 0.000000000000000000 ) ) ;
#135 = AXIS2_PLACEMENT_3D ( 'NONE', #5, #159, #74 ) ;
#136 = COORDINATED_UNIVERSAL_TIME_OFFSET ( 1, 0, .AHEAD. ) ;
#137 = VECTOR ( 'NONE', #35, 1000.000000000000000 ) ;
#138 = DIRECTION ( 'NONE',  ( 1.000000000000000000, 0.000000000000000000, 0.000000000000000000 ) ) ;
#139 = APPLICATION_PROTOCOL_DEFINITION ( 'international standard', 'config_control_design', 1994, #94 ) ;
#140 = DIRECTION ( 'NONE',  ( 0.000000000000000000, 0.000000000000000000, 1.000000000000000000 ) ) ;
#141 = CC_DESIGN_DATE_AND_TIME_ASSIGNMENT ( #143, #110, ( #238 ) ) ;
#142 = PERSON_AND_ORGANIZATION ( #240, #113 ) ;
#143 = DATE_AND_TIME ( #171, #181 ) ;
#144 = CALENDAR_DATE ( 2022, 7, 7 ) ;
#145 = ORIENTED_EDGE ( 'NONE', *, *, #10, .T. ) ;
#146 = PERSON_AND_ORGANIZATION_ROLE ( 'creator' ) ;
#147 = AXIS2_PLACEMENT_3D ( 'NONE', #221, #103, #153 ) ;
#148 = EDGE_CURVE ( 'NONE', #3, #106, #34, .T. ) ;
#149 = ORIENTED_EDGE ( 'NONE', *, *, #65, .T. ) ;
#150 = APPROVAL_PERSON_ORGANIZATION ( #206, #24, #189 ) ;
#151 = VERTEX_POINT ( 'NONE', #131 ) ;
#152 = ADVANCED_FACE ( 'NONE', ( #132 ), #61, .F. ) ;
#153 = DIRECTION ( 'NONE',  ( 1.000000000000000000, 0.000000000000000000, -0.000000000000000000 ) ) ;
#154 = EDGE_LOOP ( 'NONE', ( #4, #99, #52, #47 ) ) ;
#155 = EDGE_LOOP ( 'NONE', ( #72, #244, #292, #199 ) ) ;
#156 = ORIENTED_EDGE ( 'NONE', *, *, #148, .T. ) ;
#157 = AXIS2_PLACEMENT_3D ( 'NONE', #303, #17, #88 ) ;
#158 = ORIENTED_EDGE ( 'NONE', *, *, #148, .F. ) ;
#159 = DIRECTION ( 'NONE',  ( -0.000000000000000000, -0.000000000000000000, -1.000000000000000000 ) ) ;
#160 = DIRECTION ( 'NONE',  ( 0.000000000000000000, 0.000000000000000000, -1.000000000000000000 ) ) ;
#161 = VECTOR ( 'NONE', #8, 1000.000000000000000 ) ;
#162 = CC_DESIGN_PERSON_AND_ORGANIZATION_ASSIGNMENT ( #42, #168, ( #43 ) ) ;
#163 = DIRECTION ( 'NONE',  ( 0.000000000000000000, 0.000000000000000000, 1.000000000000000000 ) ) ;
#164 = DIRECTION ( 'NONE',  ( 1.224646799147353207E-16, 1.000000000000000000, -0.000000000000000000 ) ) ;
#165 = CARTESIAN_POINT ( 'NONE',  ( -2.700000000000000178, 3.306546357697853733E-16, 3.000000000000004441 ) ) ;
#166 = COORDINATED_UNIVERSAL_TIME_OFFSET ( 1, 0, .AHEAD. ) ;
#167 = APPROVAL_PERSON_ORGANIZATION ( #285, #211, #97 ) ;
#168 = PERSON_AND_ORGANIZATION_ROLE ( 'design_owner' ) ;
#169 = CARTESIAN_POINT ( 'NONE',  ( 0.000000000000000000, 0.000000000000000000, 3.000000000000000000 ) ) ;
#170 = CC_DESIGN_PERSON_AND_ORGANIZATION_ASSIGNMENT ( #95, #1, ( #298 ) ) ;
#171 = CALENDAR_DATE ( 2022, 7, 7 ) ;
#172 = ORIENTED_EDGE ( 'NONE', *, *, #133, .T. ) ;
#173 = PERSON_AND_ORGANIZATION ( #240, #113 ) ;
#174 = CIRCLE ( 'NONE', #210, 0.2000000000000000944 ) ;
#175 = AXIS2_PLACEMENT_3D ( 'NONE', #64, #39, #235 ) ;
#176 = CC_DESIGN_PERSON_AND_ORGANIZATION_ASSIGNMENT ( #173, #146, ( #91 ) ) ;
#177 = ORIENTED_EDGE ( 'NONE', *, *, #254, .T. ) ;
#178 = EDGE_LOOP ( 'NONE', ( #246, #149, #96, #102 ) ) ;
#179 = CARTESIAN_POINT ( 'NONE',  ( 2.500000000000000000, 3.061616997868383141E-16, 253.0000000000000000 ) ) ;
#180 = EDGE_CURVE ( 'NONE', #151, #203, #265, .T. ) ;
#181 = LOCAL_TIME ( 14, 46, 32.00000000000000000, #45 ) ;
#182 = DIRECTION ( 'NONE',  ( -0.000000000000000000, -0.000000000000000000, -1.000000000000000000 ) ) ;
#183 = FACE_OUTER_BOUND ( 'NONE', #50, .T. ) ;
#184 = EDGE_CURVE ( 'NONE', #241, #23, #48, .T. ) ;
#185 = DIRECTION ( 'NONE',  ( -1.000000000000000000, 0.000000000000000000, 0.000000000000000000 ) ) ;
#186 = CARTESIAN_POINT ( 'NONE',  ( 0.000000000000000000, 0.000000000000000000, 3.000000000000000000 ) ) ;
#187 = DIRECTION ( 'NONE',  ( 1.000000000000000000, 0.000000000000000000, 0.000000000000000000 ) ) ;
#188 = DIRECTION ( 'NONE',  ( 0.000000000000000000, -1.000000000000000000, 0.000000000000000000 ) ) ;
#189 = APPROVAL_ROLE ( '' ) ;
#190 = AXIS2_PLACEMENT_3D ( 'NONE', #38, #231, #205 ) ;
#191 = LOCAL_TIME ( 14, 46, 32.00000000000000000, #307 ) ;
#192 =( LENGTH_UNIT ( ) NAMED_UNIT ( * ) SI_UNIT ( .MILLI., .METRE. ) );
#193 = CIRCLE ( 'NONE', #260, 2.700000000000000178 ) ;
#194 = CIRCLE ( 'NONE', #55, 5.000000000000000000 ) ;
#195 = PERSON_AND_ORGANIZATION_ROLE ( 'design_supplier' ) ;
#196 = ADVANCED_FACE ( 'NONE', ( #60 ), #222, .F. ) ;
#197 = EDGE_CURVE ( 'NONE', #3, #151, #37, .T. ) ;
#198 = CC_DESIGN_PERSON_AND_ORGANIZATION_ASSIGNMENT ( #15, #63, ( #238 ) ) ;
#199 = ORIENTED_EDGE ( 'NONE', *, *, #267, .F. ) ;
#200 = CARTESIAN_POINT ( 'NONE',  ( 5.000000000000000000, 6.123233995736766282E-16, 3.000000000000000000 ) ) ;
#201 = DIRECTION ( 'NONE',  ( 1.000000000000000000, 0.000000000000000000, 0.000000000000000000 ) ) ;
#202 = ORIENTED_EDGE ( 'NONE', *, *, #267, .T. ) ;
#203 = VERTEX_POINT ( 'NONE', #165 ) ;
#204 = CYLINDRICAL_SURFACE ( 'NONE', #289, 5.000000000000000000 ) ;
#205 = DIRECTION ( 'NONE',  ( 1.000000000000000000, 0.000000000000000000, 0.000000000000000000 ) ) ;
#206 = PERSON_AND_ORGANIZATION ( #240, #113 ) ;
#207 = CARTESIAN_POINT ( 'NONE',  ( 2.500000000000000000, 3.061616997868383141E-16, 253.0000000000000000 ) ) ;
#208 = CARTESIAN_POINT ( 'NONE',  ( -5.000000000000000000, 0.000000000000000000, 3.000000000000000000 ) ) ;
#209 = AXIS2_PLACEMENT_3D ( 'NONE', #279, #164, #226 ) ;
#210 = AXIS2_PLACEMENT_3D ( 'NONE', #58, #188, #160 ) ;
#211 = APPROVAL ( #264, 'NEURÈENÝ' ) ;
#212 = CALENDAR_DATE ( 2022, 7, 7 ) ;
#213 = DATE_AND_TIME ( #70, #251 ) ;
#214 = COORDINATED_UNIVERSAL_TIME_OFFSET ( 1, 0, .AHEAD. ) ;
#215 = ORIENTED_EDGE ( 'NONE', *, *, #197, .T. ) ;
#216 = ORIENTED_EDGE ( 'NONE', *, *, #234, .T. ) ;
#217 = PRODUCT_RELATED_PRODUCT_CATEGORY ( 'detail', '', ( #43 ) ) ;
#218 = AXIS2_PLACEMENT_3D ( 'NONE', #169, #140, #93 ) ;
#219 = CARTESIAN_POINT ( 'NONE',  ( 0.000000000000000000, 0.000000000000000000, 253.0000000000000000 ) ) ;
#220 = ORIENTED_EDGE ( 'NONE', *, *, #78, .T. ) ;
#221 = CARTESIAN_POINT ( 'NONE',  ( 0.000000000000000000, 0.000000000000000000, 3.000000000000000000 ) ) ;
#222 = TOROIDAL_SURFACE ( 'NONE', #90, 2.700000000000000178, 0.2000000000000000111 ) ;
#223 = CC_DESIGN_APPROVAL ( #211, ( #298 ) ) ;
#224 = DIRECTION ( 'NONE',  ( 1.000000000000000000, 0.000000000000000000, 0.000000000000000000 ) ) ;
#225 = ADVANCED_FACE ( 'NONE', ( #16 ), #13, .T. ) ;
#226 = DIRECTION ( 'NONE',  ( -1.000000000000000000, 1.224646799147353207E-16, 0.000000000000000000 ) ) ;
#227 = CARTESIAN_POINT ( 'NONE',  ( -2.500000000000000000, 0.000000000000000000, 253.0000000000000000 ) ) ;
#228 = AXIS2_PLACEMENT_3D ( 'NONE', #51, #247, #243 ) ;
#229 = APPROVAL_DATE_TIME ( #66, #250 ) ;
#230 = CC_DESIGN_SECURITY_CLASSIFICATION ( #298, ( #91 ) ) ;
#231 = DIRECTION ( 'NONE',  ( 0.000000000000000000, 0.000000000000000000, 1.000000000000000000 ) ) ;
#232 = FACE_OUTER_BOUND ( 'NONE', #242, .T. ) ;
#233 = CARTESIAN_POINT ( 'NONE',  ( -5.000000000000000000, 0.000000000000000000, 0.000000000000000000 ) ) ;
#234 = EDGE_CURVE ( 'NONE', #101, #151, #14, .T. ) ;
#235 = DIRECTION ( 'NONE',  ( 1.000000000000000000, 0.000000000000000000, 0.000000000000000000 ) ) ;
#236 = APPROVAL_PERSON_ORGANIZATION ( #142, #250, #255 ) ;
#237 = DIRECTION ( 'NONE',  ( -0.000000000000000000, -0.000000000000000000, -1.000000000000000000 ) ) ;
#238 = PRODUCT_DEFINITION ( 'NEZNÁMÝ', '', #91, #272 ) ;
#239 = MANIFOLD_SOLID_BREP ( 'Zaoblit1', #54 ) ;
#240 = PERSON ( 'NEURÈENÝ', 'NEURÈENÝ', 'NEURÈENÝ', ('NEURÈENÝ'), ('NEURÈENÝ'), ('NEURÈENÝ') ) ;
#241 = VERTEX_POINT ( 'NONE', #208 ) ;
#242 = EDGE_LOOP ( 'NONE', ( #269, #158, #215, #172 ) ) ;
#243 = DIRECTION ( 'NONE',  ( 1.000000000000000000, 0.000000000000000000, 0.000000000000000000 ) ) ;
#244 = ORIENTED_EDGE ( 'NONE', *, *, #180, .T. ) ;
#245 = CC_DESIGN_APPROVAL ( #250, ( #238 ) ) ;
#246 = ORIENTED_EDGE ( 'NONE', *, *, #288, .F. ) ;
#247 = DIRECTION ( 'NONE',  ( 0.000000000000000000, 0.000000000000000000, 1.000000000000000000 ) ) ;
#248 = EDGE_CURVE ( 'NONE', #33, #203, #80, .T. ) ;
#249 = DIRECTION ( 'NONE',  ( -0.000000000000000000, -0.000000000000000000, -1.000000000000000000 ) ) ;
#250 = APPROVAL ( #41, 'NEURÈENÝ' ) ;
#251 = LOCAL_TIME ( 14, 46, 32.00000000000000000, #166 ) ;
#252 = DIRECTION ( 'NONE',  ( 0.000000000000000000, 0.000000000000000000, 1.000000000000000000 ) ) ;
#253 = DIRECTION ( 'NONE',  ( 0.000000000000000000, 0.000000000000000000, 1.000000000000000000 ) ) ;
#254 = EDGE_CURVE ( 'NONE', #106, #101, #112, .T. ) ;
#255 = APPROVAL_ROLE ( '' ) ;
#256 = DIRECTION ( 'NONE',  ( 1.000000000000000000, 0.000000000000000000, -0.000000000000000000 ) ) ;
#257 = AXIS2_PLACEMENT_3D ( 'NONE', #273, #271, #122 ) ;
#258 = FACE_OUTER_BOUND ( 'NONE', #32, .T. ) ;
#259 = APPLICATION_PROTOCOL_DEFINITION ( 'international standard', 'config_control_design', 1994, #87 ) ;
#260 = AXIS2_PLACEMENT_3D ( 'NONE', #290, #182, #6 ) ;
#261 = SECURITY_CLASSIFICATION_LEVEL ( 'unclassified' ) ;
#262 = DATE_AND_TIME ( #212, #130 ) ;
#263 = EDGE_LOOP ( 'NONE', ( #21, #77 ) ) ;
#264 = APPROVAL_STATUS ( 'not_yet_approved' ) ;
#265 = CIRCLE ( 'NONE', #209, 0.2000000000000000944 ) ;
#266 = PERSON_AND_ORGANIZATION ( #240, #113 ) ;
#267 = EDGE_CURVE ( 'NONE', #101, #33, #174, .T. ) ;
#268 = ADVANCED_FACE ( 'NONE', ( #108 ), #204, .T. ) ;
#269 = ORIENTED_EDGE ( 'NONE', *, *, #254, .F. ) ;
#270 = CYLINDRICAL_SURFACE ( 'NONE', #135, 5.000000000000000000 ) ;
#271 = DIRECTION ( 'NONE',  ( 0.000000000000000000, 0.000000000000000000, 1.000000000000000000 ) ) ;
#272 = DESIGN_CONTEXT ( 'detailed design', #87, 'design' ) ;
#273 = CARTESIAN_POINT ( 'NONE',  ( 0.000000000000000000, 0.000000000000000000, 3.200000000000008171 ) ) ;
#274 = DIRECTION ( 'NONE',  ( -0.000000000000000000, -0.000000000000000000, -1.000000000000000000 ) ) ;
#275 = AXIS2_PLACEMENT_3D ( 'NONE', #295, #253, #297 ) ;
#276 = DIRECTION ( 'NONE',  ( 1.000000000000000000, 0.000000000000000000, 0.000000000000000000 ) ) ;
#277 = ADVANCED_FACE ( 'NONE', ( #232 ), #281, .T. ) ;
#278 = DIRECTION ( 'NONE',  ( 1.000000000000000000, 0.000000000000000000, -0.000000000000000000 ) ) ;
#279 = CARTESIAN_POINT ( 'NONE',  ( -2.700000000000000178, 3.306546357697853733E-16, 3.200000000000008171 ) ) ;
#280 = CARTESIAN_POINT ( 'NONE',  ( -5.000000000000000000, 0.000000000000000000, 3.000000000000000000 ) ) ;
#281 = CYLINDRICAL_SURFACE ( 'NONE', #157, 2.500000000000000000 ) ;
#282 =( NAMED_UNIT ( * ) PLANE_ANGLE_UNIT ( ) SI_UNIT ( $, .RADIAN. ) );
#283 = CALENDAR_DATE ( 2022, 7, 7 ) ;
#284 = EDGE_CURVE ( 'NONE', #241, #291, #299, .T. ) ;
#285 = PERSON_AND_ORGANIZATION ( #240, #113 ) ;
#286 = CIRCLE ( 'NONE', #228, 5.000000000000000000 ) ;
#287 = EDGE_CURVE ( 'NONE', #291, #71, #194, .T. ) ;
#288 = EDGE_CURVE ( 'NONE', #23, #241, #28, .T. ) ;
#289 = AXIS2_PLACEMENT_3D ( 'NONE', #296, #79, #185 ) ;
#290 = CARTESIAN_POINT ( 'NONE',  ( 0.000000000000000000, 0.000000000000000000, 3.000000000000000000 ) ) ;
#291 = VERTEX_POINT ( 'NONE', #233 ) ;
#292 = ORIENTED_EDGE ( 'NONE', *, *, #248, .F. ) ;
#293 = CARTESIAN_POINT ( 'NONE',  ( 2.500000000000000000, 3.061616997868383141E-16, 3.200000000000008171 ) ) ;
#294 = EDGE_LOOP ( 'NONE', ( #121, #145 ) ) ;
#295 = CARTESIAN_POINT ( 'NONE',  ( 0.000000000000000000, 0.000000000000000000, 3.200000000000008171 ) ) ;
#296 = CARTESIAN_POINT ( 'NONE',  ( 0.000000000000000000, 0.000000000000000000, 3.000000000000000000 ) ) ;
#297 = DIRECTION ( 'NONE',  ( 1.000000000000000000, 0.000000000000000000, 0.000000000000000000 ) ) ;
#298 = SECURITY_CLASSIFICATION ( '', '', #261 ) ;
#299 = LINE ( 'NONE', #280, #44 ) ;
#300 = CARTESIAN_POINT ( 'NONE',  ( 0.000000000000000000, 0.000000000000000000, 253.0000000000000000 ) ) ;
#301 = CYLINDRICAL_SURFACE ( 'NONE', #82, 2.500000000000000000 ) ;
#302 = ADVANCED_FACE ( 'NONE', ( #258 ), #301, .T. ) ;
#303 = CARTESIAN_POINT ( 'NONE',  ( 0.000000000000000000, 0.000000000000000000, 253.0000000000000000 ) ) ;
#304 = VECTOR ( 'NONE', #249, 1000.000000000000000 ) ;
#305 =( GEOMETRIC_REPRESENTATION_CONTEXT ( 3 ) GLOBAL_UNCERTAINTY_ASSIGNED_CONTEXT ( ( #75 ) ) GLOBAL_UNIT_ASSIGNED_CONTEXT ( ( #192, #282, #306 ) ) REPRESENTATION_CONTEXT ( 'NONE', 'WORKASPACE' ) );
#306 =( NAMED_UNIT ( * ) SI_UNIT ( $, .STERADIAN. ) SOLID_ANGLE_UNIT ( ) );
#307 = COORDINATED_UNIVERSAL_TIME_OFFSET ( 1, 0, .AHEAD. ) ;
ENDSEC;
END-ISO-10303-21;
