ISO-10303-21;
HEADER;
FILE_DESCRIPTION (( 'STEP AP203' ),
    '1' );
FILE_NAME ('ad78.STEP',
    '2022-07-07T12:23:53',
    ( '' ),
    ( '' ),
    'SwSTEP 2.0',
    'SolidWorks 2019',
    '' );
FILE_SCHEMA (( 'CONFIG_CONTROL_DESIGN' ));
ENDSEC;

DATA;
#1 = DIRECTION ( 'NONE',  ( -1.000000000000000000, 1.224646799147353454E-16, 0.000000000000000000 ) ) ;
#2 = DIRECTION ( 'NONE',  ( 0.000000000000000000, 0.000000000000000000, 1.000000000000000000 ) ) ;
#3 = CARTESIAN_POINT ( 'NONE',  ( 9.000000000000000000, 1.102182119232617714E-15, 0.000000000000000000 ) ) ;
#4 = AXIS2_PLACEMENT_3D ( 'NONE', #279, #259, #53 ) ;
#5 = EDGE_CURVE ( 'NONE', #176, #81, #62, .T. ) ;
#6 = FACE_OUTER_BOUND ( 'NONE', #206, .T. ) ;
#7 = ORIENTED_EDGE ( 'NONE', *, *, #302, .F. ) ;
#8 =( GEOMETRIC_REPRESENTATION_CONTEXT ( 3 ) GLOBAL_UNCERTAINTY_ASSIGNED_CONTEXT ( ( #65 ) ) GLOBAL_UNIT_ASSIGNED_CONTEXT ( ( #290, #95, #193 ) ) REPRESENTATION_CONTEXT ( 'NONE', 'WORKASPACE' ) );
#9 = ADVANCED_FACE ( 'NONE', ( #256 ), #110, .T. ) ;
#10 = VECTOR ( 'NONE', #273, 1000.000000000000000 ) ;
#11 = ORIENTED_EDGE ( 'NONE', *, *, #302, .T. ) ;
#12 = SECURITY_CLASSIFICATION_LEVEL ( 'unclassified' ) ;
#13 = CC_DESIGN_PERSON_AND_ORGANIZATION_ASSIGNMENT ( #149, #129, ( #157 ) ) ;
#14 = LOCAL_TIME ( 14, 23, 53.00000000000000000, #242 ) ;
#15 = VERTEX_POINT ( 'NONE', #60 ) ;
#16 = AXIS2_PLACEMENT_3D ( 'NONE', #18, #42, #104 ) ;
#17 = ORIENTED_EDGE ( 'NONE', *, *, #265, .F. ) ;
#18 = CARTESIAN_POINT ( 'NONE',  ( 0.000000000000000000, 0.000000000000000000, 7.000000000000000000 ) ) ;
#19 = AXIS2_PLACEMENT_3D ( 'NONE', #137, #235, #1 ) ;
#20 = EDGE_LOOP ( 'NONE', ( #296, #11 ) ) ;
#21 = EDGE_CURVE ( 'NONE', #228, #59, #175, .T. ) ;
#22 = DESIGN_CONTEXT ( 'detailed design', #200, 'design' ) ;
#23 = DIRECTION ( 'NONE',  ( 1.000000000000000000, 0.000000000000000000, 0.000000000000000000 ) ) ;
#24 = EDGE_CURVE ( 'NONE', #15, #81, #58, .T. ) ;
#25 = LINE ( 'NONE', #117, #225 ) ;
#26 = CARTESIAN_POINT ( 'NONE',  ( 0.000000000000000000, 0.000000000000000000, 167.0000000000000000 ) ) ;
#27 = DIRECTION ( 'NONE',  ( 0.000000000000000000, -1.000000000000000000, 0.000000000000000000 ) ) ;
#28 = EDGE_CURVE ( 'NONE', #251, #145, #180, .T. ) ;
#29 = PERSON_AND_ORGANIZATION ( #33, #79 ) ;
#30 = DATE_AND_TIME ( #34, #229 ) ;
#31 = APPROVAL_DATE_TIME ( #172, #114 ) ;
#32 = PERSON_AND_ORGANIZATION ( #33, #79 ) ;
#33 = PERSON ( 'NEURÈENÝ', 'NEURÈENÝ', 'NEURÈENÝ', ('NEURÈENÝ'), ('NEURÈENÝ'), ('NEURÈENÝ') ) ;
#34 = CALENDAR_DATE ( 2022, 7, 7 ) ;
#35 = ORIENTED_EDGE ( 'NONE', *, *, #265, .T. ) ;
#36 = PRODUCT_DEFINITION ( 'NEZNÁMÝ', '', #258, #22 ) ;
#37 = CC_DESIGN_APPROVAL ( #44, ( #157 ) ) ;
#38 = DIRECTION ( 'NONE',  ( -0.000000000000000000, -0.000000000000000000, -1.000000000000000000 ) ) ;
#39 = DIRECTION ( 'NONE',  ( 1.000000000000000000, 0.000000000000000000, 0.000000000000000000 ) ) ;
#40 = ORIENTED_EDGE ( 'NONE', *, *, #274, .F. ) ;
#41 = VECTOR ( 'NONE', #234, 1000.000000000000000 ) ;
#42 = DIRECTION ( 'NONE',  ( -0.000000000000000000, -0.000000000000000000, -1.000000000000000000 ) ) ;
#43 = CARTESIAN_POINT ( 'NONE',  ( 6.000000000000000888, 7.347880794884120722E-16, 7.200000000000011724 ) ) ;
#44 = APPROVAL ( #169, 'NEURÈENÝ' ) ;
#45 = DIRECTION ( 'NONE',  ( -1.000000000000000000, 0.000000000000000000, 0.000000000000000000 ) ) ;
#46 = LINE ( 'NONE', #184, #41 ) ;
#47 = DIRECTION ( 'NONE',  ( -0.000000000000000000, -0.000000000000000000, -1.000000000000000000 ) ) ;
#48 = DIRECTION ( 'NONE',  ( -0.000000000000000000, -0.000000000000000000, -1.000000000000000000 ) ) ;
#49 = DATE_AND_TIME ( #241, #195 ) ;
#50 = CC_DESIGN_APPROVAL ( #114, ( #36 ) ) ;
#51 = CYLINDRICAL_SURFACE ( 'NONE', #116, 6.000000000000000888 ) ;
#52 = AXIS2_PLACEMENT_3D ( 'NONE', #140, #64, #119 ) ;
#53 = DIRECTION ( 'NONE',  ( 1.000000000000000000, 0.000000000000000000, 0.000000000000000000 ) ) ;
#54 = DATE_AND_TIME ( #267, #165 ) ;
#55 = APPROVAL_PERSON_ORGANIZATION ( #29, #123, #219 ) ;
#56 = COORDINATED_UNIVERSAL_TIME_OFFSET ( 1, 0, .AHEAD. ) ;
#57 = EDGE_LOOP ( 'NONE', ( #174, #78, #271, #106 ) ) ;
#58 = CIRCLE ( 'NONE', #243, 6.000000000000000888 ) ;
#59 = VERTEX_POINT ( 'NONE', #83 ) ;
#60 = CARTESIAN_POINT ( 'NONE',  ( -6.000000000000000888, 0.000000000000000000, 7.200000000000011724 ) ) ;
#61 = CARTESIAN_POINT ( 'NONE',  ( 0.000000000000000000, 0.000000000000000000, 7.200000000000011724 ) ) ;
#62 = LINE ( 'NONE', #82, #10 ) ;
#63 = CARTESIAN_POINT ( 'NONE',  ( 0.000000000000000000, 0.000000000000000000, 0.000000000000000000 ) ) ;
#64 = DIRECTION ( 'NONE',  ( 0.000000000000000000, 0.000000000000000000, 1.000000000000000000 ) ) ;
#65 = UNCERTAINTY_MEASURE_WITH_UNIT (LENGTH_MEASURE( 1.000000000000000082E-05 ), #290, 'distance_accuracy_value', 'NONE');
#66 = DIRECTION ( 'NONE',  ( 0.000000000000000000, 0.000000000000000000, 1.000000000000000000 ) ) ;
#67 = CC_DESIGN_PERSON_AND_ORGANIZATION_ASSIGNMENT ( #266, #244, ( #258 ) ) ;
#68 = DIRECTION ( 'NONE',  ( 1.000000000000000000, 0.000000000000000000, 0.000000000000000000 ) ) ;
#69 = CARTESIAN_POINT ( 'NONE',  ( 6.200000000000001066, 0.000000000000000000, 7.000000000000006217 ) ) ;
#70 = APPROVAL_PERSON_ORGANIZATION ( #199, #114, #286 ) ;
#71 = ADVANCED_FACE ( 'NONE', ( #231 ), #205, .T. ) ;
#72 = DIRECTION ( 'NONE',  ( 1.000000000000000000, 0.000000000000000000, 0.000000000000000000 ) ) ;
#73 = AXIS2_PLACEMENT_3D ( 'NONE', #189, #2, #305 ) ;
#74 = COORDINATED_UNIVERSAL_TIME_OFFSET ( 1, 0, .AHEAD. ) ;
#75 = DATE_AND_TIME ( #224, #288 ) ;
#76 = PERSON_AND_ORGANIZATION_ROLE ( 'design_owner' ) ;
#77 = APPLICATION_PROTOCOL_DEFINITION ( 'international standard', 'config_control_design', 1994, #200 ) ;
#78 = ORIENTED_EDGE ( 'NONE', *, *, #191, .F. ) ;
#79 = ORGANIZATION ( 'NEURÈENÝ', 'NEURÈENÝ', '' ) ;
#80 = EDGE_CURVE ( 'NONE', #277, #176, #107, .T. ) ;
#81 = VERTEX_POINT ( 'NONE', #43 ) ;
#82 = CARTESIAN_POINT ( 'NONE',  ( 6.000000000000000888, 7.347880794884120722E-16, 167.0000000000000000 ) ) ;
#83 = CARTESIAN_POINT ( 'NONE',  ( -9.000000000000000000, 0.000000000000000000, 0.000000000000000000 ) ) ;
#84 = ADVANCED_FACE ( 'NONE', ( #306, #159 ), #164, .T. ) ;
#85 = ORIENTED_EDGE ( 'NONE', *, *, #28, .T. ) ;
#86 = ORIENTED_EDGE ( 'NONE', *, *, #160, .T. ) ;
#87 = FACE_OUTER_BOUND ( 'NONE', #248, .T. ) ;
#88 = AXIS2_PLACEMENT_3D ( 'NONE', #158, #118, #186 ) ;
#89 = FACE_OUTER_BOUND ( 'NONE', #181, .T. ) ;
#90 = CARTESIAN_POINT ( 'NONE',  ( 6.000000000000000888, 7.347880794884120722E-16, 167.0000000000000000 ) ) ;
#91 = AXIS2_PLACEMENT_3D ( 'NONE', #26, #285, #263 ) ;
#92 = CARTESIAN_POINT ( 'NONE',  ( 0.000000000000000000, 0.000000000000000000, 0.000000000000000000 ) ) ;
#93 = LINE ( 'NONE', #261, #280 ) ;
#94 = TOROIDAL_SURFACE ( 'NONE', #143, 6.200000000000001066, 0.2000000000000000111 ) ;
#95 =( NAMED_UNIT ( * ) PLANE_ANGLE_UNIT ( ) SI_UNIT ( $, .RADIAN. ) );
#96 = DIRECTION ( 'NONE',  ( 0.000000000000000000, 0.000000000000000000, 1.000000000000000000 ) ) ;
#97 = DIRECTION ( 'NONE',  ( 1.000000000000000000, 0.000000000000000000, 0.000000000000000000 ) ) ;
#98 = ADVANCED_FACE ( 'NONE', ( #260 ), #136, .T. ) ;
#99 = CIRCLE ( 'NONE', #111, 9.000000000000000000 ) ;
#100 = PRODUCT_DEFINITION_SHAPE ( 'NONE', 'NONE',  #36 ) ;
#101 = DIRECTION ( 'NONE',  ( 1.000000000000000000, 0.000000000000000000, 0.000000000000000000 ) ) ;
#102 = APPLICATION_CONTEXT ( 'configuration controlled 3d designs of mechanical parts and assemblies' ) ;
#103 = PERSON_AND_ORGANIZATION ( #33, #79 ) ;
#104 = DIRECTION ( 'NONE',  ( -1.000000000000000000, 0.000000000000000000, 0.000000000000000000 ) ) ;
#105 = AXIS2_PLACEMENT_3D ( 'NONE', #146, #96, #97 ) ;
#106 = ORIENTED_EDGE ( 'NONE', *, *, #274, .T. ) ;
#107 = CIRCLE ( 'NONE', #154, 6.000000000000000888 ) ;
#108 = CARTESIAN_POINT ( 'NONE',  ( 0.000000000000000000, 0.000000000000000000, 7.000000000000000000 ) ) ;
#109 = EDGE_CURVE ( 'NONE', #151, #59, #25, .T. ) ;
#110 = PLANE ( 'NONE',  #150 ) ;
#111 = AXIS2_PLACEMENT_3D ( 'NONE', #268, #166, #121 ) ;
#112 = ORIENTED_EDGE ( 'NONE', *, *, #147, .T. ) ;
#113 = DIRECTION ( 'NONE',  ( 1.000000000000000000, 0.000000000000000000, -0.000000000000000000 ) ) ;
#114 = APPROVAL ( #144, 'NEURÈENÝ' ) ;
#115 = CARTESIAN_POINT ( 'NONE',  ( 0.000000000000000000, 0.000000000000000000, 7.000000000000000000 ) ) ;
#116 = AXIS2_PLACEMENT_3D ( 'NONE', #125, #192, #127 ) ;
#117 = CARTESIAN_POINT ( 'NONE',  ( -9.000000000000000000, 0.000000000000000000, 7.000000000000000000 ) ) ;
#118 = DIRECTION ( 'NONE',  ( 0.000000000000000000, 0.000000000000000000, 1.000000000000000000 ) ) ;
#119 = DIRECTION ( 'NONE',  ( 1.000000000000000000, 0.000000000000000000, -0.000000000000000000 ) ) ;
#120 = CARTESIAN_POINT ( 'NONE',  ( -6.000000000000000888, 0.000000000000000000, 167.0000000000000000 ) ) ;
#121 = DIRECTION ( 'NONE',  ( 1.000000000000000000, 0.000000000000000000, 0.000000000000000000 ) ) ;
#122 = ORIENTED_EDGE ( 'NONE', *, *, #24, .T. ) ;
#123 = APPROVAL ( #196, 'NEURÈENÝ' ) ;
#124 = PERSON_AND_ORGANIZATION_ROLE ( 'creator' ) ;
#125 = CARTESIAN_POINT ( 'NONE',  ( 0.000000000000000000, 0.000000000000000000, 167.0000000000000000 ) ) ;
#126 = APPROVAL_ROLE ( '' ) ;
#127 = DIRECTION ( 'NONE',  ( -1.000000000000000000, 0.000000000000000000, 0.000000000000000000 ) ) ;
#128 = ADVANCED_FACE ( 'NONE', ( #262 ), #213, .T. ) ;
#129 = PERSON_AND_ORGANIZATION_ROLE ( 'classification_officer' ) ;
#130 = APPROVAL_DATE_TIME ( #54, #44 ) ;
#131 = ORIENTED_EDGE ( 'NONE', *, *, #239, .F. ) ;
#132 = DIRECTION ( 'NONE',  ( 1.000000000000000000, 0.000000000000000000, 0.000000000000000000 ) ) ;
#133 = ORIENTED_EDGE ( 'NONE', *, *, #24, .F. ) ;
#134 = ORIENTED_EDGE ( 'NONE', *, *, #170, .T. ) ;
#135 = ADVANCED_FACE ( 'NONE', ( #89 ), #299, .F. ) ;
#136 = CYLINDRICAL_SURFACE ( 'NONE', #163, 9.000000000000000000 ) ;
#137 = CARTESIAN_POINT ( 'NONE',  ( -6.200000000000001066, 7.592810154713590821E-16, 7.200000000000011724 ) ) ;
#138 = AXIS2_PLACEMENT_3D ( 'NONE', #238, #27, #161 ) ;
#139 = CARTESIAN_POINT ( 'NONE',  ( 0.000000000000000000, 0.000000000000000000, 7.000000000000000000 ) ) ;
#140 = CARTESIAN_POINT ( 'NONE',  ( 0.000000000000000000, 0.000000000000000000, 7.000000000000000000 ) ) ;
#141 = CARTESIAN_POINT ( 'NONE',  ( -6.200000000000001066, 7.592810154713590821E-16, 7.000000000000006217 ) ) ;
#142 = DATE_TIME_ROLE ( 'creation_date' ) ;
#143 = AXIS2_PLACEMENT_3D ( 'NONE', #215, #282, #68 ) ;
#144 = APPROVAL_STATUS ( 'not_yet_approved' ) ;
#145 = VERTEX_POINT ( 'NONE', #141 ) ;
#146 = CARTESIAN_POINT ( 'NONE',  ( 0.000000000000000000, 0.000000000000000000, 167.0000000000000000 ) ) ;
#147 = EDGE_CURVE ( 'NONE', #272, #228, #46, .T. ) ;
#148 = CIRCLE ( 'NONE', #252, 9.000000000000000000 ) ;
#149 = PERSON_AND_ORGANIZATION ( #33, #79 ) ;
#150 = AXIS2_PLACEMENT_3D ( 'NONE', #232, #304, #253 ) ;
#151 = VERTEX_POINT ( 'NONE', #211 ) ;
#152 = ORIENTED_EDGE ( 'NONE', *, *, #80, .F. ) ;
#153 = DIRECTION ( 'NONE',  ( 0.000000000000000000, 0.000000000000000000, 1.000000000000000000 ) ) ;
#154 = AXIS2_PLACEMENT_3D ( 'NONE', #178, #153, #72 ) ;
#155 = EDGE_LOOP ( 'NONE', ( #173, #152, #245, #122 ) ) ;
#156 = DIRECTION ( 'NONE',  ( 0.000000000000000000, 0.000000000000000000, 1.000000000000000000 ) ) ;
#157 = SECURITY_CLASSIFICATION ( '', '', #12 ) ;
#158 = CARTESIAN_POINT ( 'NONE',  ( 0.000000000000000000, 0.000000000000000000, 7.000000000000000000 ) ) ;
#159 = FACE_OUTER_BOUND ( 'NONE', #167, .T. ) ;
#160 = EDGE_CURVE ( 'NONE', #272, #151, #148, .T. ) ;
#161 = DIRECTION ( 'NONE',  ( 0.000000000000000000, 0.000000000000000000, -1.000000000000000000 ) ) ;
#162 = DIRECTION ( 'NONE',  ( 1.000000000000000000, 0.000000000000000000, 0.000000000000000000 ) ) ;
#163 = AXIS2_PLACEMENT_3D ( 'NONE', #115, #47, #45 ) ;
#164 = PLANE ( 'NONE',  #52 ) ;
#165 = LOCAL_TIME ( 14, 23, 53.00000000000000000, #74 ) ;
#166 = DIRECTION ( 'NONE',  ( 0.000000000000000000, 0.000000000000000000, 1.000000000000000000 ) ) ;
#167 = EDGE_LOOP ( 'NONE', ( #208, #86 ) ) ;
#168 = APPROVAL_DATE_TIME ( #75, #123 ) ;
#169 = APPROVAL_STATUS ( 'not_yet_approved' ) ;
#170 = EDGE_CURVE ( 'NONE', #15, #145, #295, .T. ) ;
#171 = CARTESIAN_POINT ( 'NONE',  ( 0.000000000000000000, 0.000000000000000000, 0.000000000000000000 ) ) ;
#172 = DATE_AND_TIME ( #201, #14 ) ;
#173 = ORIENTED_EDGE ( 'NONE', *, *, #5, .F. ) ;
#174 = ORIENTED_EDGE ( 'NONE', *, *, #147, .F. ) ;
#175 = CIRCLE ( 'NONE', #190, 9.000000000000000000 ) ;
#176 = VERTEX_POINT ( 'NONE', #90 ) ;
#177 = CC_DESIGN_DATE_AND_TIME_ASSIGNMENT ( #49, #142, ( #36 ) ) ;
#178 = CARTESIAN_POINT ( 'NONE',  ( 0.000000000000000000, 0.000000000000000000, 167.0000000000000000 ) ) ;
#179 = ORIENTED_EDGE ( 'NONE', *, *, #5, .T. ) ;
#180 = CIRCLE ( 'NONE', #255, 6.200000000000001066 ) ;
#181 = EDGE_LOOP ( 'NONE', ( #233, #17, #276, #204 ) ) ;
#182 = FACE_OUTER_BOUND ( 'NONE', #254, .T. ) ;
#183 = AXIS2_PLACEMENT_3D ( 'NONE', #171, #247, #101 ) ;
#184 = CARTESIAN_POINT ( 'NONE',  ( 9.000000000000000000, 1.102182119232617714E-15, 7.000000000000000000 ) ) ;
#185 = DIRECTION ( 'NONE',  ( -0.000000000000000000, -0.000000000000000000, -1.000000000000000000 ) ) ;
#186 = DIRECTION ( 'NONE',  ( 1.000000000000000000, 0.000000000000000000, 0.000000000000000000 ) ) ;
#187 = PRODUCT_RELATED_PRODUCT_CATEGORY ( 'detail', '', ( #297 ) ) ;
#188 = CIRCLE ( 'NONE', #4, 6.000000000000000888 ) ;
#189 = CARTESIAN_POINT ( 'NONE',  ( 0.000000000000000000, 0.000000000000000000, 7.200000000000011724 ) ) ;
#190 = AXIS2_PLACEMENT_3D ( 'NONE', #63, #156, #257 ) ;
#191 = EDGE_CURVE ( 'NONE', #151, #272, #246, .T. ) ;
#192 = DIRECTION ( 'NONE',  ( -0.000000000000000000, -0.000000000000000000, -1.000000000000000000 ) ) ;
#193 =( NAMED_UNIT ( * ) SI_UNIT ( $, .STERADIAN. ) SOLID_ANGLE_UNIT ( ) );
#194 = ORIENTED_EDGE ( 'NONE', *, *, #21, .T. ) ;
#195 = LOCAL_TIME ( 14, 23, 53.00000000000000000, #56 ) ;
#196 = APPROVAL_STATUS ( 'not_yet_approved' ) ;
#197 = EDGE_LOOP ( 'NONE', ( #222, #112, #194, #303 ) ) ;
#198 = SHAPE_DEFINITION_REPRESENTATION ( #100, #283 ) ;
#199 = PERSON_AND_ORGANIZATION ( #33, #79 ) ;
#200 = APPLICATION_CONTEXT ( 'configuration controlled 3d designs of mechanical parts and assemblies' ) ;
#201 = CALENDAR_DATE ( 2022, 7, 7 ) ;
#202 = DIRECTION ( 'NONE',  ( 0.000000000000000000, 0.000000000000000000, 1.000000000000000000 ) ) ;
#203 = AXIS2_PLACEMENT_3D ( 'NONE', #139, #185, #23 ) ;
#204 = ORIENTED_EDGE ( 'NONE', *, *, #214, .F. ) ;
#205 = CYLINDRICAL_SURFACE ( 'NONE', #16, 9.000000000000000000 ) ;
#206 = EDGE_LOOP ( 'NONE', ( #7, #179, #35, #131 ) ) ;
#207 = CIRCLE ( 'NONE', #203, 6.200000000000001066 ) ;
#208 = ORIENTED_EDGE ( 'NONE', *, *, #191, .T. ) ;
#209 = DIRECTION ( 'NONE',  ( -0.000000000000000000, -0.000000000000000000, -1.000000000000000000 ) ) ;
#210 = CC_DESIGN_DATE_AND_TIME_ASSIGNMENT ( #30, #223, ( #157 ) ) ;
#211 = CARTESIAN_POINT ( 'NONE',  ( -9.000000000000000000, 0.000000000000000000, 7.000000000000000000 ) ) ;
#212 = CC_DESIGN_SECURITY_CLASSIFICATION ( #157, ( #258 ) ) ;
#213 = CYLINDRICAL_SURFACE ( 'NONE', #91, 6.000000000000000888 ) ;
#214 = EDGE_CURVE ( 'NONE', #145, #251, #207, .T. ) ;
#215 = CARTESIAN_POINT ( 'NONE',  ( 0.000000000000000000, 0.000000000000000000, 7.200000000000011724 ) ) ;
#216 = EDGE_CURVE ( 'NONE', #81, #251, #307, .T. ) ;
#217 = AXIS2_PLACEMENT_3D ( 'NONE', #92, #284, #113 ) ;
#218 = CARTESIAN_POINT ( 'NONE',  ( 9.000000000000000000, 1.102182119232617714E-15, 7.000000000000000000 ) ) ;
#219 = APPROVAL_ROLE ( '' ) ;
#220 = APPLICATION_PROTOCOL_DEFINITION ( 'international standard', 'config_control_design', 1994, #102 ) ;
#221 = ADVANCED_FACE ( 'NONE', ( #87 ), #94, .F. ) ;
#222 = ORIENTED_EDGE ( 'NONE', *, *, #160, .F. ) ;
#223 = DATE_TIME_ROLE ( 'classification_date' ) ;
#224 = CALENDAR_DATE ( 2022, 7, 7 ) ;
#225 = VECTOR ( 'NONE', #209, 1000.000000000000000 ) ;
#226 = PERSON_AND_ORGANIZATION_ROLE ( 'design_supplier' ) ;
#227 = CC_DESIGN_PERSON_AND_ORGANIZATION_ASSIGNMENT ( #103, #76, ( #297 ) ) ;
#228 = VERTEX_POINT ( 'NONE', #3 ) ;
#229 = LOCAL_TIME ( 14, 23, 53.00000000000000000, #249 ) ;
#230 = CC_DESIGN_PERSON_AND_ORGANIZATION_ASSIGNMENT ( #32, #226, ( #258 ) ) ;
#231 = FACE_OUTER_BOUND ( 'NONE', #197, .T. ) ;
#232 = CARTESIAN_POINT ( 'NONE',  ( 0.000000000000000000, 0.000000000000000000, 167.0000000000000000 ) ) ;
#233 = ORIENTED_EDGE ( 'NONE', *, *, #170, .F. ) ;
#234 = DIRECTION ( 'NONE',  ( -0.000000000000000000, -0.000000000000000000, -1.000000000000000000 ) ) ;
#235 = DIRECTION ( 'NONE',  ( 1.224646799147353207E-16, 1.000000000000000000, -0.000000000000000000 ) ) ;
#236 = CIRCLE ( 'NONE', #105, 6.000000000000000888 ) ;
#237 = PLANE ( 'NONE',  #217 ) ;
#238 = CARTESIAN_POINT ( 'NONE',  ( 6.200000000000001066, 0.000000000000000000, 7.200000000000011724 ) ) ;
#239 = EDGE_CURVE ( 'NONE', #277, #15, #93, .T. ) ;
#240 = MANIFOLD_SOLID_BREP ( 'Zaoblit1', #298 ) ;
#241 = CALENDAR_DATE ( 2022, 7, 7 ) ;
#242 = COORDINATED_UNIVERSAL_TIME_OFFSET ( 1, 0, .AHEAD. ) ;
#243 = AXIS2_PLACEMENT_3D ( 'NONE', #61, #202, #39 ) ;
#244 = PERSON_AND_ORGANIZATION_ROLE ( 'creator' ) ;
#245 = ORIENTED_EDGE ( 'NONE', *, *, #239, .T. ) ;
#246 = CIRCLE ( 'NONE', #88, 9.000000000000000000 ) ;
#247 = DIRECTION ( 'NONE',  ( 0.000000000000000000, 0.000000000000000000, 1.000000000000000000 ) ) ;
#248 = EDGE_LOOP ( 'NONE', ( #133, #134, #300, #301 ) ) ;
#249 = COORDINATED_UNIVERSAL_TIME_OFFSET ( 1, 0, .AHEAD. ) ;
#250 = ADVANCED_FACE ( 'NONE', ( #182 ), #237, .F. ) ;
#251 = VERTEX_POINT ( 'NONE', #69 ) ;
#252 = AXIS2_PLACEMENT_3D ( 'NONE', #281, #66, #162 ) ;
#253 = DIRECTION ( 'NONE',  ( 1.000000000000000000, 0.000000000000000000, -0.000000000000000000 ) ) ;
#254 = EDGE_LOOP ( 'NONE', ( #40, #291 ) ) ;
#255 = AXIS2_PLACEMENT_3D ( 'NONE', #108, #38, #132 ) ;
#256 = FACE_OUTER_BOUND ( 'NONE', #20, .T. ) ;
#257 = DIRECTION ( 'NONE',  ( 1.000000000000000000, 0.000000000000000000, 0.000000000000000000 ) ) ;
#258 = PRODUCT_DEFINITION_FORMATION_WITH_SPECIFIED_SOURCE ( 'LIBOVOLNÝ', '', #297, .NOT_KNOWN. ) ;
#259 = DIRECTION ( 'NONE',  ( 0.000000000000000000, 0.000000000000000000, 1.000000000000000000 ) ) ;
#260 = FACE_OUTER_BOUND ( 'NONE', #57, .T. ) ;
#261 = CARTESIAN_POINT ( 'NONE',  ( -6.000000000000000888, 0.000000000000000000, 167.0000000000000000 ) ) ;
#262 = FACE_OUTER_BOUND ( 'NONE', #155, .T. ) ;
#263 = DIRECTION ( 'NONE',  ( -1.000000000000000000, 0.000000000000000000, 0.000000000000000000 ) ) ;
#264 = APPROVAL_PERSON_ORGANIZATION ( #292, #44, #126 ) ;
#265 = EDGE_CURVE ( 'NONE', #81, #15, #188, .T. ) ;
#266 = PERSON_AND_ORGANIZATION ( #33, #79 ) ;
#267 = CALENDAR_DATE ( 2022, 7, 7 ) ;
#268 = CARTESIAN_POINT ( 'NONE',  ( 0.000000000000000000, 0.000000000000000000, 0.000000000000000000 ) ) ;
#269 = PERSON_AND_ORGANIZATION ( #33, #79 ) ;
#270 = ADVANCED_FACE ( 'NONE', ( #6 ), #51, .T. ) ;
#271 = ORIENTED_EDGE ( 'NONE', *, *, #109, .T. ) ;
#272 = VERTEX_POINT ( 'NONE', #218 ) ;
#273 = DIRECTION ( 'NONE',  ( -0.000000000000000000, -0.000000000000000000, -1.000000000000000000 ) ) ;
#274 = EDGE_CURVE ( 'NONE', #59, #228, #99, .T. ) ;
#275 = CC_DESIGN_APPROVAL ( #123, ( #258 ) ) ;
#276 = ORIENTED_EDGE ( 'NONE', *, *, #216, .T. ) ;
#277 = VERTEX_POINT ( 'NONE', #120 ) ;
#278 = EDGE_LOOP ( 'NONE', ( #85, #294 ) ) ;
#279 = CARTESIAN_POINT ( 'NONE',  ( 0.000000000000000000, 0.000000000000000000, 7.200000000000011724 ) ) ;
#280 = VECTOR ( 'NONE', #48, 1000.000000000000000 ) ;
#281 = CARTESIAN_POINT ( 'NONE',  ( 0.000000000000000000, 0.000000000000000000, 7.000000000000000000 ) ) ;
#282 = DIRECTION ( 'NONE',  ( 0.000000000000000000, 0.000000000000000000, 1.000000000000000000 ) ) ;
#283 = ADVANCED_BREP_SHAPE_REPRESENTATION ( 'ad78', ( #240, #183 ), #8 ) ;
#284 = DIRECTION ( 'NONE',  ( 0.000000000000000000, 0.000000000000000000, 1.000000000000000000 ) ) ;
#285 = DIRECTION ( 'NONE',  ( -0.000000000000000000, -0.000000000000000000, -1.000000000000000000 ) ) ;
#286 = APPROVAL_ROLE ( '' ) ;
#287 = CC_DESIGN_PERSON_AND_ORGANIZATION_ASSIGNMENT ( #269, #124, ( #36 ) ) ;
#288 = LOCAL_TIME ( 14, 23, 53.00000000000000000, #289 ) ;
#289 = COORDINATED_UNIVERSAL_TIME_OFFSET ( 1, 0, .AHEAD. ) ;
#290 =( LENGTH_UNIT ( ) NAMED_UNIT ( * ) SI_UNIT ( .MILLI., .METRE. ) );
#291 = ORIENTED_EDGE ( 'NONE', *, *, #21, .F. ) ;
#292 = PERSON_AND_ORGANIZATION ( #33, #79 ) ;
#293 = MECHANICAL_CONTEXT ( 'NONE', #102, 'mechanical' ) ;
#294 = ORIENTED_EDGE ( 'NONE', *, *, #214, .T. ) ;
#295 = CIRCLE ( 'NONE', #19, 0.1999999999999996503 ) ;
#296 = ORIENTED_EDGE ( 'NONE', *, *, #80, .T. ) ;
#297 = PRODUCT ( 'ad78', 'ad78', '', ( #293 ) ) ;
#298 = CLOSED_SHELL ( 'NONE', ( #221, #270, #71, #98, #84, #250, #128, #9, #135 ) ) ;
#299 = TOROIDAL_SURFACE ( 'NONE', #73, 6.200000000000001066, 0.2000000000000000111 ) ;
#300 = ORIENTED_EDGE ( 'NONE', *, *, #28, .F. ) ;
#301 = ORIENTED_EDGE ( 'NONE', *, *, #216, .F. ) ;
#302 = EDGE_CURVE ( 'NONE', #176, #277, #236, .T. ) ;
#303 = ORIENTED_EDGE ( 'NONE', *, *, #109, .F. ) ;
#304 = DIRECTION ( 'NONE',  ( 0.000000000000000000, 0.000000000000000000, 1.000000000000000000 ) ) ;
#305 = DIRECTION ( 'NONE',  ( 1.000000000000000000, 0.000000000000000000, 0.000000000000000000 ) ) ;
#306 = FACE_BOUND ( 'NONE', #278, .T. ) ;
#307 = CIRCLE ( 'NONE', #138, 0.1999999999999996503 ) ;
ENDSEC;
END-ISO-10303-21;
